PrimaNota.ru - самый крупный в мире бесплатный архив песенных текстов, аккордов, табулатур и нот


Relient K - Bite My Tounge - таба, видео

Регистрация Запомнить меня
Войти через:  Facebook Google Twitter Vk Yandex Mail.ru

Relient K - Bite My Tounge - таба, видео

Печатать
Просмотров: 62
Song: Bite My Tounge
Artist: Relient K
Album: Five Score And Seven Years Ago
Label: Capitol/Gotee Records

Tuning: Drop Db [Db Ab Db Gb Bb eb]
Palm Mute (.)
Vibrato (~)


INTRO (0:00)

  Guitar 1 (palm muted, with delay effect)
|----10--10--10--10--10--10--10--10--9---9---9---9---9---9---9---9---|
|--10--10--10--10--10--10--10--10--10--10--10--10--10--10--10--10----|
|--------------------------------------------------------------------|
|--------------------------------------------------------------------|
|--------------------------------------------------------------------|
|--------------------------------------------------------------------|  
|  ...............................................................
|
|Guitar 2 (distortion)
|--------------------------------------------------------------------|
|--------------------------------------------------------------------|
|--------------------------------------------------------------------|
|--------------------------------------------------------------------|
|--------------------------------------------------------------------|
|--------------------------------------------------------------------|


 Gtr 1
|----10--10--10--10--10--10--10--10--9---9---9---9---12--12--12--12--|
|--10--10--10--10--10--10--10--10--10--10--10--10--10--10--10--10----|
|--------------------------------------------------------------------|
|--------------------------------------------------------------------|
|--------------------------------------------------------------------|
|--------------------------------------------------------------------|
|  ................................................................
|
|Gtr 2
|--------------------------------------------------------------------|
|--------------------------------------------------------------------|
|--------------------------------------------------------------------|
|--5-5-5-5-5-5-5-5-5-5-5-5-5-5-5-5-4-4-4-4-4-4-4-4-7-7-7-7-7-7-7-7---|
|--5-5-5-5-5-5-5-5-5-5-5-5-5-5-5-5-5-5-5-5-5-5-5-5-7-7-7-7-7-7-7-7---|
|--5-5-5-5-5-5-5-5-5-5-5-5-5-5-5-5-4-4-4-4-4-4-4-4-7-7-7-7-7-7-7-7---|


 Guitar 1 
|----10--10--10--10--10--10--10--10--9---9---9---9---9---9---9---9---|
|--10--10--10--10--10--10--10--10--10--10--10--10--10--10--10--10----|
|--------------------------------------------------------------------|
|--------------------------------------------------------------------|
|--------------------------------------------------------------------|
|--------------------------------------------------------------------|  
|  ...............................................................
|
|Guitar 2 (distortion)
|--------------------------------------------------------------------|
|--------------------------------------------------------------------|
|--7-7-7-7-7-7-7-7-7-7-7-7-7-7-7-7-----------------------------------|
|--7-7-7-7-7-7-7-7-7-7-7-7-7-7-7-7-7-7-7-7-7-7-7-7-7-7-7-7-7-7-7-7---|
|--5-5-5-5-5-5-5-5-5-5-5-5-5-5-5-5-7-7-7-7-7-7-7-7-7-7-7-7-7-7-7-7---|
|----------------------------------7-7-7-7-7-7-7-7-7-7-7-7-7-7-7-7---|

 
 Gtr 1
|----10--10--10--10--10--10--10--10--9---9---9---9---12--12--12--12--|
|--10--10--10--10--10--10--10--10--10--10--10--10--10--10--10--10----|
|--------------------------------------------------------------------|
|--------------------------------------------------------------------|
|--------------------------------------------------------------------|
|--------------------------------------------------------------------|
|  ...............................................................
|
|Gtr 2
|--------------------------------------------------------------------|
|--------------------------------------------------------------------|
|--------------------------------------------------------------------|
|--5-5-5-5-5-5-5-5-5-5-5-5-5-5-5-5-4-4-4-4-4-4-4-4-7-7-7-7-7-7-7-7---|
|--5-5-5-5-5-5-5-5-5-5-5-5-5-5-5-5-5-5-5-5-5-5-5-5-7-7-7-7-7-7-7-7---|
|--5-5-5-5-5-5-5-5-5-5-5-5-5-5-5-5-4-4-4-4-4-4-4-4-7-7-7-7-7-7-7-7---|


VERSE 1

Bass only then

 Gtr 1 (0:33)
|--------------------------------------------------------------------|
|--------------------------------------------------------------------|
|-------------------------------------------------------------7-7-7--|
|-------------------------------------------------------------x-x-x--|
|-------------------------------------------------------------5-5-5--|
|--------------------------------------------------------------------|
|
|
|Gtr 2
|--------------------------------------------------------------------|
|--------------------------------------------------------------------|
|--------------------------------------------------------------------|
|--------------------------------------------------------------------|
|--------------------------------------------------------------------|
|--------------------------------------------------------------------|

 
 Gtr 1 (x2) staccato
|--------------------------------------------------------------------|
|--------------------------------------------------------------------|
|--7---7---7---7---6---6---6---6---9---9---9---9---6---6---6---6-----|
|--7---7---7---7---7---7---7---7---7---7---7---7---7---7---7---7-----|
|--5---5---5---5---5---5---5---5---5---5---5---5---5---5---5---5-----|
|--------------------------------------------------------------------|
|
|
|Gtr 2
|--------------------------------------------------------------------|
|--------------------------------------------------------------------|
|--------------------------------------------------------------------|
|--------------------------------------------------------------------|
|--------------------------------------------------------------------|
|--------------------------------------------------------------------|


PRE-CHORUS

 Gtr 1 (0:45)
|--------------------------------------------------------------------|
|--------------------------------------------------------------------|
|--------------------------------------------------------------------|
|--5-5-5-5-5-5-5-5-7-7-7-7-7-7-7-7-9-9-9-9-9-9-9-9-9-9-9-9-9-9-9-9---|
|--5-5-5-5-5-5-5-5-7-7-7-7-7-7-7-7-9-9-9-9-9-9-9-9-9-9-9-9-9-9-9-9---|
|--5-5-5-5-5-5-5-5-7-7-7-7-7-7-7-7-9-9-9-9-9-9-9-9-9-9-9-9-9-9-9-9---|
|  . . . . . . . . . . . . . . . . . . . . . . . . . . . . . . . .
|
|Gtr 2
|--------------------------------------------------------------------|
|--------------------------------------------------------------------|
|--------------------------------------------------------------------|
|--------------------------------------------------------------------|
|--------------------------------------------------------------------|
|--------------------------------------------------------------------|


Gtr 1
|--------------------------------------------------------------------|
|--------------------------------------------------------------------|
|--------------------------------------------------------------------|
|--5-5-5-5-5-5-5-5-7-7-7-7-7-7-7-7-9-9-9-9-9-9-9-9-9-9-9-9-9-9-9-9---|
|--5-5-5-5-5-5-5-5-7-7-7-7-7-7-7-7-9-9-9-9-9-9-9-9-9-9-9-9-9-9-9-9---|
|--5-5-5-5-5-5-5-5-7-7-7-7-7-7-7-7-9-9-9-9-9-9-9-9-9-9-9-9-9-9-9-9---|
|  . . . . . . . . . . . . . . . . . . . . . . . . . slowly release
|
|Gtr 2
|--------------------------------------------------------------------|
|--------------------------------------------------------------------|
|--------------------------------------------------------------------|
|--------------------------------------------------------------------|
|--------------------------------------------------------------------|
|--------------------------------------------------------------------|


 Gtr 1 (0:56) play 2 times
|--------------------------------------------------------------------|
|--------------------------------------------------------------------|
|--------------------------------------------------------------------|
|--5-5-5-5-5-5-5-5-7-7-7-7-7-7-7-7-9-9-9-9-9-9-9-9-9-9-9-9-9-9-9-9---|
|--5-5-5-5-5-5-5-5-7-7-7-7-7-7-7-7-9-9-9-9-9-9-9-9-9-9-9-9-9-9-9-9---|
|--5-5-5-5-5-5-5-5-7-7-7-7-7-7-7-7-9-9-9-9-9-9-9-9-9-9-9-9-9-9-9-9---|
| 
|
|Gtr 2
|--------------------------------------------------------------------|
|--------------------------------------------------------------------|
|--------------------------------------------------------------------|
|--5-5-5-5-5-5-5-5-7-7-7-7-7-7-7-7-9-9-9-9-9-9-9-9-9-9-9-9-9-9-9-9---|
|--5-5-5-5-5-5-5-5-7-7-7-7-7-7-7-7-9-9-9-9-9-9-9-9-9-9-9-9-9-9-9-9---|
|--5-5-5-5-5-5-5-5-7-7-7-7-7-7-7-7-9-9-9-9-9-9-9-9-9-9-9-9-9-9-9-9---|
 

CHORUS (1:06)

Guitar 1 
|----10--10--10--10--10--10--10--10--9---9---9---9---9---9---9---9---|
|--10--10--10--10--10--10--10--10--10--10--10--10--10--10--10--10----|
|--------------------------------------------------------------------|
|--------------------------------------------------------------------|
|--------------------------------------------------------------------|
|--------------------------------------------------------------------|  
|  ...............................................................
|
|Guitar 2 (distortion)
|--------------------------------------------------------------------|
|--------------------------------------------------------------------|
|--7-7-7-7-7-7-7-7-7-7-7-7-7-7-7-7-----------------------------------|
|--7-7-7-7-7-7-7-7-7-7-7-7-7-7-7-7-7-7-7-7-7-7-7-7-7-7-7-7-7-7-7-7---|
|--5-5-5-5-5-5-5-5-5-5-5-5-5-5-5-5-7-7-7-7-7-7-7-7-7-7-7-7-7-7-7-7---|
|----------------------------------7-7-7-7-7-7-7-7-7-7-7-7-7-7-7-7---|

 
 Gtr 1
|----10--10--10--10--10--10--10--10--9---9---9---9---12--12--12--12--|
|--10--10--10--10--10--10--10--10--10--10--10--10--10--10--10--10----|
|--------------------------------------------------------------------|
|--------------------------------------------------------------------|
|--------------------------------------------------------------------|
|--------------------------------------------------------------------|
|  ...............................................................
|
|Gtr 2
|--------------------------------------------------------------------|
|--------------------------------------------------------------------|
|--------------------------------------------------------------------|
|--5-5-5-5-5-5-5-5-5-5-5-5-5-5-5-5-4-4-4-4-4-4-4-4-7-7-7-7-7-7-7-7---|
|--5-5-5-5-5-5-5-5-5-5-5-5-5-5-5-5-5-5-5-5-5-5-5-5-7-7-7-7-7-7-7-7---|
|--5-5-5-5-5-5-5-5-5-5-5-5-5-5-5-5-4-4-4-4-4-4-4-4-7-7-7-7-7-7-7-7---|


 Gtr 1 (delay effect)
|--10~~---10-10-10-10------------------------------------------------|
|--10~~---10-10-10-10------------------------------------------------|
|--------------------------------------------------------------------|
|--------------------------------------------------------------------|
|--------------------------------------------------------------------|
|--------------------------------------------------------------------|
|
|
|Gtr 2
|--------------------------------------------------------------------|
|--------------------------------------------------------------------|
|--7~~---------------------------------------------------------------|
|--7~~---------------------------------------------------------------|
|--5~~---------------------------------------------------------------|
|--------------------------------------------------------------------|


VERSE 2 (1:21) Play 2 times

 Gtr 1
|--------------------------------------------------------------------|
|--------------------------------------------------------------------|
|--14--14--14--14--14--14--14--14---9---9---9---9--11--11--11--11----|
|--12--12--12--12--12--12--12--12--12--12--12--12--12--12--12--12----|
|--------------------------------------------------------------------|
|--------------------------------------------------------------------|
|
|
|Gtr 2
|--------------------------------------------------------------------|
|--------------------------------------------------------------------|
|--7-7-7-7-7-7-7-7-7-7-7-7-7-7-7-7-----------------------------------|
|--7-7-7-7-7-7-7-7-7-7-7-7-7-7-7-7-4-4-4-4-4-4-4-4-5-5-5-5-5-5-5-5---|
|--5-5-5-5-5-5-5-5-5-5-5-5-5-5-5-5-5-5-5-5-5-5-5-5-5-5-5-5-5-5-5-5---|
|----------------------------------4-4-4-4-4-4-4-4-5-5-5-5-5-5-5-5---|
   . . . . . . . . . . . . . . . . . . . . . . . . . . . . . . . . 


PRE-CHORUS 2 (1:32)
 
 Gtr 1
|--------------------------------------------------------------------|
|--------------------------------------------------------------------|
|--------------------------------------------------------------------|
|--5-5-5-5-5-5-5-5-7-7-7-7-7-7-7-7-9-9-9-9-9-9-9-9-9-9-9-9-9-9-9-9---|
|--5-5-5-5-5-5-5-5-7-7-7-7-7-7-7-7-9-9-9-9-9-9-9-9-9-9-9-9-9-9-9-9---|
|--5-5-5-5-5-5-5-5-7-7-7-7-7-7-7-7-9-9-9-9-9-9-9-9-9-9-9-9-9-9-9-9---|
| 
|
|Gtr 2
|--------------------------------------------------------------------|
|--------------------------------------------------------------------|
|--------------------------------------------------------------------|
|--5-5-5-5-5-5-5-5-7-7-7-7-7-7-7-7-9-9-9-9-9-9-9-9-9-9-9-9-9-9-9-9---|
|--5-5-5-5-5-5-5-5-7-7-7-7-7-7-7-7-9-9-9-9-9-9-9-9-9-9-9-9-9-9-9-9---|
|--5-5-5-5-5-5-5-5-7-7-7-7-7-7-7-7-9-9-9-9-9-9-9-9-9-9-9-9-9-9-9-9---|
 

Gtr 1
|--------------------------------------------------------------------|
|--------------------------------------------------------------------|
|--------------------------------------------------------------------|
|--5-5-5-5-5-5-5-5-7-7-7-7-7-7-7-7-----------------------------------|
|--5-5-5-5-5-5-5-5-7-7-7-7-7-7-7-7-----------------------------------|
|--5-5-5-5-5-5-5-5-7-7-7-7-7-7-7-7-----------------------------------|
| 
|
|Gtr 2
|--------------------------------------------------------------------|
|--------------------------------------------------------------------|
|--------------------------------------------------------------------|
|--5-5-5-5-5-5-5-5-7-7-7-7-7-7-7-7-----------------------------------|
|--5-5-5-5-5-5-5-5-7-7-7-7-7-7-7-7-----------------------------------|
|--5-5-5-5-5-5-5-5-7-7-7-7-7-7-7-7-----------------------------------|


CHORUS x2

BRIDGE (2:04)

 Gtr 1 Play 2 times
|--------------------------------------------------------------------|
|--------------------------------------------------------------------|
|--------------------------------------------------------------------|
|--------------------------------------------------------------------|
|--------------------------------------------------------------------|
|--------------------------------------------------------------------|
|
|
|Gtr 2
|--------------------------------------------------------------------|
|--------------------------------------------------------------------|
|----------------------------------7-7-7-7-7-7-7-7-------------------|
|--9-9-9-9-9-9-9-9-5-5-5-5-5-5-5-5-7-7-7-7-7-7-7-7-4-4-4-4-4-4-4-4---|
|--9-9-9-9-9-9-9-9-5-5-5-5-5-5-5-5-5-5-5-5-5-5-5-5-5-5-5-5-5-5-5-5---|
|--9-9-9-9-9-9-9-9-5-5-5-5-5-5-5-5-----------------4-4-4-4-4-4-4-4---|
|  . . . . . . . . . . . . . . . . . . . . . . . . . . . . . . . .

Then

 Gtr 1
|--------------------------------------------------------------------|
|--------------------------------------------------------------------|
|--------------------------------------------------------------------|
|--------------------------------------------------------------------|
|--------------------------------------------------------------------|
|--------------------------------------------------------------------|
|
|
|Gtr 2
|--------------------------------------------------------------------|
|--------------------------------------------------------------------|
|--------------------------------------------------------------------|
|--5-5-5-5-5-5-5-5-7-7-7-7-7-7-7-7-----------------------------------|
|--5-5-5-5-5-5-5-5-7-7-7-7-7-7-7-7-----------------------------------|
|--5-5-5-5-5-5-5-5-7-7-7-7-7-7-7-7-----------------------------------|
|  . . . . . . . . . . . . . . . .


FINAL CHORUS
 Gtr 1
|--------------------------------------------------------------------|
|--------------------------------------------------------------------|
|--------------------------------------------------------------------|
|--------------------------------------------------------------------|
|--------------------------------------------------------------------|
|--------------------------------------------------------------------|
|
|
|Gtr 2
|--------------------------------------------------------------------|
|--------------------------------------------------------------------|
|--------------------------------------------------------------------|
|--------------------------------------------------------------------|
|--5-5-5-5-5-5-5-5-5-5-5-5-5-5-5-5-----------------------------------|
|----------------------------------7-7-7-7-7-7-7-7-7-7-7-7-7-7-7-7---|
   . . . . . . . . . . . . . . . . . . . . . . . . . . . . . . . . 


 Gtr 1
|--------------------------------------------------------------------|
|--------------------------------------------------------------------|
|--------------------------------------------------------------------|
|--5-5-5-5-5-5-5-5-5-5-5-5-5-5-5-5-4-4-4-4-4-4-4-4-7-7-7-7-7-7-7-7---|
|--5-5-5-5-5-5-5-5-5-5-5-5-5-5-5-5-5-5-5-5-5-5-5-5-7-7-7-7-7-7-7-7---|
|--5-5-5-5-5-5-5-5-5-5-5-5-5-5-5-5-4-4-4-4-4-4-4-4-7-7-7-7-7-7-7-7---|
|
|
|Gtr 2
|--------------------------------------------------------------------|
|--------------------------------------------------------------------|
|--------------------------------------------------------------------|
|--5-5-5-5-5-5-5-5-5-5-5-5-5-5-5-5-4-4-4-4-4-4-4-4-7-7-7-7-7-7-7-7---|
|--5-5-5-5-5-5-5-5-5-5-5-5-5-5-5-5-5-5-5-5-5-5-5-5-7-7-7-7-7-7-7-7---|
|--5-5-5-5-5-5-5-5-5-5-5-5-5-5-5-5-4-4-4-4-4-4-4-4-7-7-7-7-7-7-7-7---|


 OUTRO (play 2 times)
 Guitar 1 
|----10--10--10--10--10--10--10--10--9---9---9---9---9---9---9---9---|
|--10--10--10--10--10--10--10--10--10--10--10--10--10--10--10--10----|
|--------------------------------------------------------------------|
|--------------------------------------------------------------------|
|--------------------------------------------------------------------|
|--------------------------------------------------------------------|  
|  ...............................................................
|
|Guitar 2 (distortion)
|--------------------------------------------------------------------|
|--------------------------------------------------------------------|
|--7-7-7-7-7-7-7-7-7-7-7-7-7-7-7-7-----------------------------------|
|--7-7-7-7-7-7-7-7-7-7-7-7-7-7-7-7-7-7-7-7-7-7-7-7-7-7-7-7-7-7-7-7---|
|--5-5-5-5-5-5-5-5-5-5-5-5-5-5-5-5-7-7-7-7-7-7-7-7-7-7-7-7-7-7-7-7---|
|----------------------------------7-7-7-7-7-7-7-7-7-7-7-7-7-7-7-7---|

 
 Gtr 1
|----10--10--10--10--10--10--10--10--9---9---9---9---12--12--12--12--|
|--10--10--10--10--10--10--10--10--10--10--10--10--10--10--10--10----|
|--------------------------------------------------------------------|
|--------------------------------------------------------------------|
|--------------------------------------------------------------------|
|--------------------------------------------------------------------|
|  ...............................................................
|
|Gtr 2
|--------------------------------------------------------------------|
|--------------------------------------------------------------------|
|--------------------------------------------------------------------|
|--5-5-5-5-5-5-5-5-5-5-5-5-5-5-5-5-4-4-4-4-4-4-4-4-7-7-7-7-7-7-7-7---|
|--5-5-5-5-5-5-5-5-5-5-5-5-5-5-5-5-5-5-5-5-5-5-5-5-7-7-7-7-7-7-7-7---|
|--5-5-5-5-5-5-5-5-5-5-5-5-5-5-5-5-4-4-4-4-4-4-4-4-7-7-7-7-7-7-7-7---|

END ON
 Gtr 1
|--10~~--------------------------------------------------------------|
|--10~~--------------------------------------------------------------|
|--------------------------------------------------------------------|
|--------------------------------------------------------------------|
|--------------------------------------------------------------------|
|--------------------------------------------------------------------|
|
|
|Gtr 2
|--------------------------------------------------------------------|
|--------------------------------------------------------------------|
|--7~~---------------------------------------------------------------|
|--7~~---------------------------------------------------------------|
|--5~~---------------------------------------------------------------|
|--------------------------------------------------------------------|




| /  slide up
| \  slide down
| h  hammer-on
| p  pull-off
| ~  vibrato
| +  harmonic
| x  Mute note
===============================================================================
Добавлено: 09.10.2013
Другие материалы по этой песне:
  • Аккорды и текст

Страница создана 09.10.2013
http://primanota.ru/relient-k/bite-my-tounge-chords.htm
Привет, Гость.
Предлагаем пройти революционный курс по гитаре.
Подарок от PrimaNota.Ru, забирай!