PrimaNota.ru - самый крупный в мире бесплатный архив песенных текстов, аккордов, табулатур и нот


Relic - Cotton Cottage - таба, видео

Регистрация Запомнить меня
Войти через:  Facebook Google Twitter Vk Yandex Mail.ru

Relic - Cotton Cottage - таба, видео

Печатать
Просмотров: 116
From d.meloche@sauron.globalx.net Fri Apr 18 10:38:45 1997
Date: Sat, 05 Apr 1997 19:35:54 +0100
From: Dan Meloche 
To: guitar@olga.net
Subject: TAB: Cotton Cottage by RELIC

Cotton Cottage by Relic
Words and Music by John Meloche

distortion
normal tuning

Intro:

e-------------------------------------|
B-------------------------------------|
G--3--3-3--------------------6--6-6-\-|
D--3--3-3---3--3-3/-6--6-6---6--6-6-\-|
A--1--1-1-0-3--3-3/-6--6-6-0-4--4-4-\-|
E-----------1--1-1/-4--4-4------------|

verses 1,2,4:
e------------------------|
B------------------------|
G------------------------|
D----3--------------6-6\-|
A--1-----3-3/---6-4------|
E------1----/-4----------|

verses 3 and 5:
e-------------------------------------|
B-------------------------------------|
G--3--3-3--------------------6--6-6-\-|
D--3--3-3---3--3-3/-6--6-6---6--6-6-\-|
A--1--1-1-0-3--3-3/-6--6-6-0-4--4-4-\-|
E-----------1--1-1/-4--4-4------------|

pre chorus:
e---------------|
B---------------|
G---------------|
D--6------------|
A--4-6-3-333333-|
E----4-1-111111-|

chorus:
A--10-10-10-10-10-10-10-10-7--7--7--8--8--8-|
E--8--8--8--8--8--8--8--8--5--5--5--6--6--6-|

bridge:
A--10-10-10-10-10-10-10-10-7--7--7--5--5--5-|
E--8--8--8--8--8--8--8--8--5--5--5--3--3--3-|

finish:
A--10-10-10-10-10-10-10-10-7--7--7--8--8--8-|
E--8--8--8--8--8--8--8--8--5--5--5--6--6--6-|

last line of finish do this:
A--10-10-10-10-10-10-10-10-7--7--7--8--8--8\0-|
E--8--8--8--8--8--8--8--8--5--5--5--6--6--6\0-|

Lyrics:

v1
Dark night on the open sea
And the land has disappeared
Nothing in sight but water
And I'm beginning to feel weird
v2
Redrum on the captain's mind
Round the world and back again
The only things I see are clouds and mist
Only I understand
v3
It's like I'm in a desert
And I can see a mirage
It's of a distant shoreline
And on the shore is a cotton cottage

Hey yeah, on and on and on

(chorus:)
I see a cotton cottage
And a little log cabin
Alone and distant
I'm there within
I sleep in a cotton cottage
Redrum on the walls
I climb to the top
And have myself a fall

Hey yeah, on and on and on and on

v4
Nothing more than pure madness
Don't expect to ever get home
I don't recognize my own face
So I think I'll start to roam
v5
Everyone's either dead, or
They threw themselves overboard
They didn't find their cotton cottages
And they haven't found the Lord

Redrum, hey yeah, on and on and on,

I see a cotton cottage
And a little log cabin
Alone and distant
I'm there within
I sleep in a cotton cottage
Redrum on the walls
I climb to the top
And have myself a fall

Redrum, redrum, on and on and on and on

I see a cotton cottage
And a little log cabin
Alone and distant
I'm there within
I sleep in a cotton cottage
Redrum on the walls
I climb to the top
And have myself a fall

Cotton cottage in the sky
Li'l log cabin n' I can't fly
Cotton cottage piece of the sky
Li'l log cabin n' my mouth's gone dry

Cotton Cottage Skies
Cotton Cottage Skies
Cotton Cottage Skies
Cotton Cottage Skies Nevermore

Copyright 1996 Relic
Добавлено: 10.06.2012
Другие материалы по этой песне:
  • Аккорды и текст

Страница создана 02.05.2012
http://primanota.ru/relic/cotton-cottage-chords.htm
Привет, Гость.
Предлагаем пройти революционный курс по гитаре.
Подарок от PrimaNota.Ru, забирай!