PrimaNota.ru - самый крупный в мире бесплатный архив песенных текстов, аккордов, табулатур и нот


Reliant K - Sadie Hawkins Dance - бас-таба, видео

Регистрация Запомнить меня
Войти через:  Facebook Google Twitter Vk Yandex Mail.ru

Reliant K - Sadie Hawkins Dance - бас-таба, видео

Печатать
Просмотров: 86
Song Title: Sadie Hawkins Dance
Artist: Reliant K
Tabbed by: Pat McKinney (boarderpat99@yahoo.com)

This song is pretty easy.  It is consistent except 
for the little bass solo-type thing.  It's not really 
a bass solo, but it is only vocals and bass, and sounds 
pretty cool.  I will put the order of the riffs after 
the song.  Just listen to the song for the rythmns.  
Also, the rythm in the intro and Brige A are a little 
different in the song than I have written. 
I would just play those parts with a strum pattern that 
you feel best fits the song.


Intro:

G:--------------------------
D:--------------------------
A:-------------------6-6-666
E:-6-66--1-11--3-33---------


Verse:

G:--------------------------------------
D:--------------------------------------
A:------------------------------66666666
E:-66666666--11111111--3333333----------


Chorus:

G:--------------------------------------------
D:--------------------------------------------
A:----------8-8-8-8--10-10-10-10--6-----------
E:-6-6-6-6-----------------------------6-6-6-6

G:-------------------------------
D:-------------------------------
A:-8-8-8-8--10-10-10-10--88888888
E:-------------------------------


Bridge (Part A):

G:------------------------------------
D:------------------------------------
A:-------------------------------6-66-666
E:-6-66-666--1-11-111--3-33-333----------


Bridge (Part B):

G:---------------------------------------
D:---------------------------------------
A:-------------------------------66666666
E:-66666666--11111111--33333333----------


Bass and Vocal Part:

G:---------------------------------------
D:---------------------1-111111----------
A:-------------------------------1-111111
E:-3-333333--1-111111--------------------

G:-------------------------------------------
D:-------------------------11111111--33333333
A:-------------------------------------------
E:-11--3-333333--1-111111--------------------


Song Order:

Intro      4x
Verse      2x
Chorus     1x
Verse      2x
Chorus     1x
Intro      1x
Bridge A   4x
Bridge B   2x

Bass and Vocal  1x

Chorus 2X  
     
Добавлено: 26.07.2013
Другие материалы по этой песне:
  • Аккорды и текст

Страница создана 26.07.2013
http://primanota.ru/reliant-k/sadie-hawkins-dance-chords.htm
Привет, Гость.
Предлагаем пройти революционный курс по гитаре.
Подарок от PrimaNota.Ru, забирай!