PrimaNota.ru - самый крупный в мире бесплатный архив песенных текстов, аккордов, табулатур и нот


Rekiem - Novocaina - таба, видео

Регистрация Запомнить меня
Войти через:  Facebook Google Twitter Vk Yandex Mail.ru

Rekiem - Novocaina - таба, видео

Печатать
Просмотров: 61
Banda: Rekiem
Cancion: Novocaina
Album: Apgar:0
Año: 2001

OK esta es la tablatura de "Novocaina" de la banda de Nu Metal Chilena Rekiem 
(una de mis bandas nacionales favoritas)
la tablatura no esta 100% correcta y se aceptan aportes, la saque por oido y despues de ver una precentacion
en vivo
Q.E.P.D Julian Durney
La afinacion es la tipica de Rekiem, Drop B
OK aqui va:

Intro/Verso 1 (Limpio con un poco de Chorus):

C#||--------------------------------------------|
G#||--------------------------------------------|
E ||--------------------------------2-----------|
B ||--------2------2-------2-----------2--------|
F#||-----2-------2-------2-------2--------------|
B ||--2-------1--------2------1-----------------|

esto se repite las veces necesarias


Coro (Distorcion):

C#||--------------------------------------------|
G#||--------------------------------------------|
E ||----------------------10-10-10-10-----------|
B ||-------14--------14---10-10-10-10-----------|
F#||----12-12-----12-12---8--8--8--8------------|
B ||-12----12--12----12-------------------------|

^ Esto se toca 3 veces,
escucha la cancion y encontras el patron exacto de las notas, pero esos son los acordes

Post-Coro (Distorcion):

C#||------------------------------|
G#||------------------------------|
E ||-7-7-7-7--5-5-5--3-3----------|
B ||-7-7-7-7--5-5-5--3-3----------|
F#||-5-5-5-5--3-3-3--1-1----------|
B ||------------------------------|

^Esto es una vez solamente, despues viene esto:

C#||-----------------------|
G#||-----------------------|
E ||-----------------------|
B ||--22-2--11-1-----------|
F#||--22-2--11-1-----------|
B ||--22-2--11-1-----------|
      __    __
      PM    PM

^Esto es 2 veces

Verso 2:

C#||--------------------------------------------|
G#||--------------------------------------------|
E ||--------------------------------2-----------|
B ||--------2------2-------2-----------2--------|
F#||-----2-------2-------2-------2--------------|
B ||--2-------1--------2------1-----------------|

C#||----------------------------------|
G#||----------------------------------|
E ||----------------------------------|
B ||--------2------2-------2----------|
F#||-----2-------2-------2------------|
B ||--2-------1--------2------1-------|

^Aqui la guitarra para de tocar como por un segundo y despues sigue normalmente, osea esto:

C#||--------------------------------------------|
G#||--------------------------------------------|
E ||--------------------------------2-----------|
B ||--------2------2-------2-----------2--------|
F#||-----2-------2-------2-------2--------------|
B ||--2-------1--------2------1-----------------|


Coro Denuevo:
Coro (Distorcion):

C#||--------------------------------------------|
G#||--------------------------------------------|
E ||----------------------10-10-10-10-----------|
B ||-------14--------14---10-10-10-10-----------|
F#||----12-12-----12-12---8--8--8--8------------|
B ||-12----12--12----12-------------------------|

^Lo Mismo del primer coro
 
Post-Coro (Distorcion):

C#||------------------------------|
G#||------------------------------|
E ||-7-7-7-7--5-5-5--3-3----------|
B ||-7-7-7-7--5-5-5--3-3----------|
F#||-5-5-5-5--3-3-3--1-1----------|
B ||------------------------------|

^Ya saben la historia

Esta parte es distinta, esta vez es mas extensa
C#||-------------------------------------------|
G#||-------------------------------------------|
E ||-------------------------------------------|
B ||--22-2--11-1---0-1-1--0-1-1--0-1-1--0-1-1--|
F#||--22-2--11-1---0-1-1--0-1-1--0-1-1--0-1-1--|
B ||--22-2--11-1---0-1-1--0-1-1--0-1-1--0-1-1--|
      __    __            ____________________
      PM    PM                    PM

^Esto es 4 veces

Final:

C#||-------------------------------------------------------------------|
G#||-------------------------------------------------------------------|
E ||-------------------------------------------------------------------|
B ||-------14--------14--------14----------12--------12--------12------|
F#||----12-12-----12-12-----12-12-------10-10-----10-10-----10-10------|
B ||-12----12--12----12--12----12----10----10--10----10--10----10------|

^Denuevo, escucha la cancion para saber el patron
^ Esto se toca hasta que la cancion termina

Y eso seria! GRANDE REKIEM!!!
Добавлено: 07.08.2015
Другие материалы по этой песне:
  • Аккорды и текст

Страница создана 07.08.2015
http://primanota.ru/rekiem/novocaina-chords.htm
Привет, Гость.
Предлагаем пройти революционный курс по гитаре.
Подарок от PrimaNota.Ru, забирай!