PrimaNota.ru - самый крупный в мире бесплатный архив песенных текстов, аккордов, табулатур и нот


Reincidentes - Vicio - таба, видео

Регистрация Запомнить меня
Войти через:  Facebook Google Twitter Vk Yandex Mail.ru

Reincidentes - Vicio - таба, видео

Печатать
Просмотров: 106
-------------------------------------------------------------------------------
                             VICIO - Reincidentes
-------------------------------------------------------------------------------
Tabbed by:Luis Gustavo Hernández Collado
Email: ltavo_87@hotmail.com

Tuning:EADGBe

Intro
Guitarra 1
e|--------------------------------------------------|
B|--------------------------------------------------|
G|--------------------------------------------------|X4
D|-00-33-22-00----33-22----00-33-22-020----33-22----|
A|-------------11-------33--------------11-------33-|
E|--------------------------------------------------|

Guitarra 2 
e|----------|
B|----------|
G|-----10-9-|
D|-8-x-10-9-|
A|-8-x-8--7-|
E|-6-x------|

e|-------------------------|
B|-------------------------|
G|-77--------77-------10-9-|
D|-77---88---77---8-x-10-9-|
A|-55PM-88---55PM-8-x-8--7-|
E|------66PM------6-x------|
PM = Palm Mute

e|-------------------------------------|
B|-------------------------------------|
G|-77777777----------77777777-----10-9-|X2
D|-77777777-88888888-77777777-8-x-10-9-|
A|-55555555-88888888-55555555-8-x-8--7-|
E|----------66666666----------6-x------|

Verso 1
(Videojuegos, tragaperras en el bingo, café y copa, todo vicio...)
Guitarra 1
e|-------------------------|
B|-------------------------|
G|-77--------77-------10-9-| X2
D|-77---88---77---8-x-10-9-|
A|-55PM-88---55PM-8-x-8--7-|
E|------66PM------6-x------|
PM = Palm Mute

e|--------------------------------------------------|
B|--------------------------------------------------|
G|--------------------------------------------------|X2
D|-00-33-22-00----33-22----00-33-22-020----33-22----|
A|-------------11-------33--------------11-------33-|
E|--------------------------------------------------|

Guitarra 2
e|-------------------------|
B|-------------------------|
G|-77--------77-------10-9-| X2
D|-77---88---77---8-x-10-9-|
A|-55PM-88---55PM-8-x-8--7-|
E|------66PM------6-x------|
PM = Palm Mute

e|-------------------------------------|
B|-------------------------------------|
G|-xxxxxxx7----------xxxxxxx7-----10-9-| X2
D|-xxxxxxx7-xxxxxxx8-xxxxxxx7-8-x-10-9-|
A|-55555555-xxxxxxx8-55555555-8-x-8--7-|
E|----------66666666----------6-x------|

Coro 1
(Sin vicio no puedo estar [¡Vicio! ¡vicio!] Sin vicio no quiero ná [¡Vicio! ¡vicio!])
Guitarra 1/Guitarra 2
e|----------------------|
B|----------------------|
G|-7r----7r-------------|X4
D|-7r-8r-7r-10-10-10-10-|
A|-5r-8r-5r-10-10-10-10-|
E|----6r----8--8--8--8--|
r= let ring

Verso 2
(Cocaína para trabajar por que mi curro me lo exige...)
Guitarra 1
e|-------------------------|
B|-------------------------|
G|-77--------77-------10-9-| X2
D|-77---88---77---8-x-10-9-|
A|-55PM-88---55PM-8-x-8--7-|
E|------66PM------6-x------|
PM = Palm Mute

e|--------------------------------------------------|
B|--------------------------------------------------|
G|--------------------------------------------------|X2
D|-00-33-22-00----33-22----00-33-22-020----33-22----|
A|-------------11-------33--------------11-------33-|
E|--------------------------------------------------|

Guitarra 2
e|-------------------------|
B|-------------------------|
G|-77--------77-------10-9-| X2
D|-77---88---77---8-x-10-9-|
A|-55PM-88---55PM-8-x-8--7-|
E|------66PM------6-x------|
PM = Palm Mute

e|-------------------------------------|
B|-------------------------------------|
G|-xxxxxxx7----------xxxxxxx7-----10-9-| X2
D|-xxxxxxx7-xxxxxxx8-xxxxxxx7-8-x-10-9-|
A|-55555555-xxxxxxx8-55555555-8-x-8--7-|
E|----------66666666----------6-x------|

Coro 2
(Sin vicio no puedo estar [¡Vicio! ¡vicio!] Sin vicio no quiero ná [¡Vicio! ¡vicio!])
Guitarra 1/Guitarra 2
e|----------------------|
B|----------------------|
G|-7r----7r-------------|X4
D|-7r-8r-7r-10-10-10-10-|
A|-5r-8r-5r-10-10-10-10-|
E|----6r----8--8--8--8--|
r= let ring

Solo
Guitarra 1
e|-5-3-1-3-1---1---------------------------------1-0-3-1-3^-|
B|-----------3---3-1-------------------------1-3------------|
G|-------------------2-0-2-0---0-----------2----------------|
D|---------------------------3---3-----0-3------------------|
A|---------------------------------1-3----------------------|
E|----------------------------------------------------------|
^=bending

e|---5-8-|
B|-8-----|
G|-------|X8
D|-------|
A|-------|
E|-------|

e|-5-5-6-5-3-1-3-1-0-1-0-----------3^-|
B|-----------------------3-1-3--------|
G|-----------------------------2-0----|
D|------------------------------------|
A|------------------------------------|
E|------------------------------------|
^=bending

e|-10-8-----0-1-0---0---------------------1-1-0---0-1-0---0-3-1-0-1-0-|
B|------8-6-------3---3---------------1-3-------3-------3-------------|
G|----------------------2-0---------2---------------------------------|
D|------------------------------0-3-----------------------------------|
A|--------------------------0-3---------------------------------------|
E|--------------------------------------------------------------------|

e|-----------------------|
B|-3-1-3-1---------------|
G|---------2-0-2-0-------|
D|-----------------3-0-2-|
A|-----------------------|
E|-----------------------|

Guitarra 2
e|-------------------------|
B|-------------------------|
G|-77--------77-------10-9-|X2
D|-77---88---77---8-x-10-9-|
A|-55PM-88---55PM-8-x-8--7-|
E|------66PM------6-x------|
PM = Palm Mute

e|---------------------------------|
B|---------------------------------|
G|-xxxxxxx7----------xxxxxxx7-xxxx-|
D|-xxxxxxx7-xxxxxxx8-xxxxxxx7-xxxx-|
A|-55555555-xxxxxxx8-55555555-xxxx-|
E|----------66666666---------------|

e|-------------------------------------|
B|-------------------------------------|
G|-xxxxxxx7----------xxxxxxx7-----10-9-|
D|-xxxxxxx7-xxxxxxx8-xxxxxxx7-8-x-10-9-|
A|-55555555-xxxxxxx8-55555555-8-x-8--7-|
E|----------66666666----------6-x------|

Puente
(No paran de criticar...)
Guitarra 1/ Guitarra 2
e|-----------------------|
B|-----------------------|
G|-----------------------|
D|-5---7/8---10/12---10r-|
A|-5---7/8---10/12---10r-|
E|-3PM-5/6PM-8-/10PM-8r--|
PM=Palm Mute
r= let ring

Solo 2
Guitarra 1
e|------------------------------------------------------------------|
B|-3-1-3-1-3-1-3-1-3-1-3-1-3-1-3-1-1^-3-1-3-1---1-------------------|
G|--------------------------------------------2---2-0---0-----------|
D|----------------------------------------------------3---3-0-0-2-0-|
A|------------------------------------------------------------------|
E|------------------------------------------------------------------|

e|----------------------------------|
B|----------------------------------|
G|-----0-----0-----0-----0-----0-0r-|
D|-0-3---0-3---0-3---0-3---0-3------|
A|----------------------------------|
E|----------------------------------|

e|-----------------/5-/5-/5-5^-|
B|-------1-------1-------------|
G|---0-2---2-0-2---------------|
D|-3---------------------------|
A|-----------------------------|
E|-----------------------------|

Guitarra 2
e|-------------------|
B|-------------------|
G|-7r----7r-----10-9-|X2
D|-7r-8r-7r-8-x-10-9-|
A|-5r-8r-5r-8-x-8--7-|
E|----6r----6-x------|

Verso 3
(Litronear en las plazas es un acto de vandalismo...)
Guitarra 1
e|-------------------------|
B|-------------------------|
G|-77--------77-------10-9-| X2
D|-77---88---77---8-x-10-9-|
A|-55PM-88---55PM-8-x-8--7-|
E|------66PM------6-x------|
PM = Palm Mute

e|--------------------------------------------------|
B|--------------------------------------------------|
G|--------------------------------------------------|X2
D|-00-33-22-00----33-22----00-33-22-020----33-22----|
A|-------------11-------33--------------11-------33-|
E|--------------------------------------------------|

Guitarra 2
e|-------------------------|
B|-------------------------|
G|-77--------77-------10-9-| X2
D|-77---88---77---8-x-10-9-|
A|-55PM-88---55PM-8-x-8--7-|
E|------66PM------6-x------|
PM = Palm Mute

e|-------------------------------------|
B|-------------------------------------|
G|-xxxxxxx7----------xxxxxxx7-----10-9-| X2
D|-xxxxxxx7-xxxxxxx8-xxxxxxx7-8-x-10-9-|
A|-55555555-xxxxxxx8-55555555-8-x-8--7-|
E|----------66666666----------6-x------|

Coro 3
(Sin vicio no puedo estar [¡Vicio! ¡vicio!] Sin vicio no quiero ná [¡Vicio! ¡vicio!])
Guitarra 1/Guitarra 2
e|----------------------|
B|----------------------|
G|-7r----7r-------------|X4
D|-7r-8r-7r-10-10-10-10-|
A|-5r-8r-5r-10-10-10-10-|
E|----6r----8--8--8--8--|
r= let ring

e|-------------|
B|-------------|
G|-------------|X3
D|-10-10-10-10-|
A|-10-10-10-10-|
E|-8--8--8--8--|

Outro
Guitarra 1
e|--------------------------------------------------|
B|--------------------------------------------------|
G|--------------------------------------------------|
D|-00-33-22-00----33-22----00-33-22-020----33-22----|
A|-------------11-------33--------------11-------33-|
E|--------------------------------------------------|

Guitarra 2
e|---------------------|
B|---------------------|
G|-7r----7r------------|
D|-7r-8r-7r-8r-10-10---|
A|-5r-8r-5r-8r-10-10---|
E|----6r----6r-8--8-PM-|
r= let ring
PM= Palm Mute
Добавлено: 28.04.2012
Другие материалы по этой песне:

Страница создана 03.03.2012
http://primanota.ru/reincidentes/vicio-chords.htm
Привет, Гость.
Предлагаем пройти революционный курс по гитаре.
Подарок от PrimaNota.Ru, забирай!