PrimaNota.ru - самый крупный в мире бесплатный архив песенных текстов, аккордов, табулатур и нот


Reilly David - Stay - таба, видео

Регистрация Запомнить меня
Войти через:  Facebook Google Twitter Vk Yandex Mail.ru

Reilly David - Stay - таба, видео

Печатать
Просмотров: 104
"Stay" from the David Reilly solo album "Inside"
Standard tuning played on acoustic.
tabbed by jeremy plaster
jplastinumb@aol.com                       


   Fig A
E
|-------------------------------------0-----------0----------------------
B
|-------------2-----------2--------3-----------3-----3-------------------
G
|----------2-----------2--------2-----------2----------------------------
D
|-------2-----------2--------2-----------2-------------------------------
A
|----0-----------0-------------------------------------------------------
E
|------------------------------------------------------------------------
this is the intro and verse parts (keeps repeating)


   Fig B
E
|-0-----------------0--0-----0--0--0-----0--0-----3--3-----3-------------
B
|----1--------------1--1-----1--1--1-----1--1-----3--3-----3-------------
G
|-------2-----------2--2-----2--2--2-----0--0-----0--0-----0-------------
D
|----------3--------3--3-----3--3--3-----2--2-----0--0-----0-------------
A
|-------------0-----0--0-----0--0--0-----3--3-----2--2-----2-------------
E
|-------------------------------------------------3--3-----3-------------
play this 4x during the chorus, the first notes are actually a raked
chord, he throws those in throughout the song



E |----0-------
B |----2-------
G |----2-------
D |----2-------
A |----0-------
E |------------
after playing the chorus tab 4 times end the fourth time with an A chord
then go back to Fig A for verse




     
Добавлено: 08.06.2013
Другие материалы по этой песне:
  • Аккорды и текст

Страница создана 08.06.2013
http://primanota.ru/reilly-david/stay-chords.htm
Привет, Гость.
Предлагаем пройти революционный курс по гитаре.
Подарок от PrimaNota.Ru, забирай!