PrimaNota.ru - самый крупный в мире бесплатный архив песенных текстов, аккордов, табулатур и нот


Reilly David - Spinning - таба, видео

Регистрация Запомнить меня
Войти через:  Facebook Google Twitter Vk Yandex Mail.ru

Reilly David - Spinning - таба, видео

Печатать
Просмотров: 149
Уроки эстрадного вокала в Санкт-Петербурге
"Spinning" from Dave Reilly's solo EP "Inside"
tabbed by Jeremy Plaster
jplastinumb@aol.com

standard tuning on acoustic guitar


   Fig. A
E
|------------------------------------------------------------------------
B
|----------0--------------------0--------------------0-------------------
G
|-------12----12-------------12----12-------------12----12-------------12
D
|----10----------10-------10----------10-------10----------10-------10---
A
|-0--------------------0--------------------0--------------------0-------
E
|------------------------------------------------------------------------
this is played a few times for the intro and the verses


               Fig. B
E
|----0-----|-------------------------------------------------------------
B
|-0--------|-------------------------------------------------------------
G
|----------|--9-----9--9-----9--------9-----9--9-----9-----9-----9--9----
D
|----------|--12----12-12----12-------12----12-12----12----12----12-12---
A
|----------|--12----12-12----12-------12----12-12----12----12----12-12---
E
|----------|--10----10-10----10-------10----10-10----10----10----10-10---
               the intro plays a few times and then this part is added to
the end of the intro for the rest of the song (in other words Fig A by
itself a few times then Fig A followed by Fig. B and repeat) 
  



E
|-------------------0--|-                                               
B
|----------------------|-                                               
G
|-9-----9-----9--9-----|-                                               
D
|-12----12----12-12----|-                                               
A
|-12----12----12-12----|-                                               
E
|-10----10----10-10----|-                                               


   Fig C
E |-------------------------------------0--0-----0--0-----1--1--|-------
B |-------------------------------------1--1-----0--0-----1--1--|-------
G |----2--2--------2--2--------2--2-----0--0-----1--1-----2--2--|-------
D |-5--2--2-----5--2--2-----5--2--2-----2--2-----2--2-----3--3--|-------
A |-5--0--0-----5--0--0-----5--0--0-----3--3-----2--2-----3--3--|-------
E |-3-----------3-----------3--------------------0--0-----1--1--|-------
play two times thru for chorus  "I'm all I've got right now....




Intro
Fig. A  2x
Fig. A 1x
Fig. B 1x
Fig. A 1x
Fig. B 1x

1st verse
no guitar

chorus
Fig. C 2x

back to intro part A and B 2x

verse 2
no guitar

chorus
and it just kinda repeats from there
     
Добавлено: 03.12.2013
Вам также может быть интересно:
Другие материалы по этой песне:
  • Аккорды и текст

Страница создана 03.12.2013
http://primanota.ru/reilly-david/spinning-chords.htm
Привет, Гость.
Предлагаем пройти революционный курс по гитаре.
Подарок от PrimaNota.Ru, забирай!