PrimaNota.ru - самый крупный в мире бесплатный архив песенных текстов, аккордов, табулатур и нот


Reilly David - Keep Dreaming - таба, видео

Регистрация Запомнить меня
Войти через:  Facebook Google Twitter Vk Yandex Mail.ru

Reilly David - Keep Dreaming - таба, видео

Печатать
Просмотров: 135
Уроки эстрадного вокала в Санкт-Петербурге
"Keep Dreaming" from the David Reilly solo EP "Inside"
tabbed by jeremy plaster
jplastinumb@aol.com

Acoustic guitar standard tuning

   Fig. A
E
|------------------------------------------------------------------------
B
|------------------------------------------------------------------------
G
|-------4--------4-----4-----------4--------4-----4--------4--------4----
D
|----2--------2-----2-----------2--------2-----2--------2--------2-------
A
|----------------------------4--------4--------------3--------3----------
E
|-0--------0-------------------------------------------------------------



E
|----------------------------|-                                         
B
|----------------------------|-                                         
G
|-------4--------4--------4--|-                                         
D
|----2--------2--------2-----|-                                         
A
|-3--------3--------3--------|-                                         
E
|----------------------------|-                                         


   Fig. B
E
|------------------------------------------------------------------------
B
|------------------------------------------------------------------------
G
|----------4--------4--------4--------4--------4-----------4--------4----
D
|-------2--------2--------2--------2--------2-----2-----2--------2-------
A
|----4--------4--------4--------4--------4-----------3--------3----------
E
|------------------------------------------------------------------------



E |------------------------------------------------------------------
B |-------------------------0----------------------------------------
G |-------0--------4--------0----------------------------------------
D |----2--------2--------2-------------------------------------------
A |-3--------3--------3----------------------------------------------
E |------------------------------------------------------------------


Figure A is played as the intro and the verses and the chorus. It plays
over and
over until you get to the part of the lyrics in the verse where he says
"you said
you believed in me and I believed in you but I couldn't say" play Fig. B
over that
part then go back to Fig A for the chorus


     
Добавлено: 20.08.2013
Другие материалы по этой песне:
  • Аккорды и текст

Страница создана 20.08.2013
http://primanota.ru/reilly-david/keep-dreaming-chords.htm
Привет, Гость.
Предлагаем пройти революционный курс по гитаре.
Подарок от PrimaNota.Ru, забирай!