PrimaNota.ru - самый крупный в мире бесплатный архив песенных текстов, аккордов, табулатур и нот


Reilly David - Blaming The Truth - таба, видео

Регистрация Запомнить меня
Войти через:  Facebook Google Twitter Vk Yandex Mail.ru

Reilly David - Blaming The Truth - таба, видео

Печатать
Просмотров: 84
"Blaming the truth" from the David Reilly solo EP "Inside"
tabbed by jeremy plaster
jplastinumb@aol.com

This song has many overdubbed guitars and some background variations so I
tried to
simplize it for tab purposes. The intro and verse parts or 2 guitars (one
electric
one acoustic) with a 3rd guitar for a little fill part played throughout
the song.
the prechorus and chorus I have written for 1 electric guitar with
distortion (the acoustic can follow this too)..remember
to tune your low E down to D



Fig. A guitar 1
E
|-|--5--5-----8--8-----5--5-----5--5-----5--5--5--5--|--5--5-----8--8----
B
|-|--7--7-----5--5-----8--8-----7--7-----5--5--5--5--|--7--7-----5--5----
G
|-|--5--5-----5--5-----5--5-----5--5-----5--5--5--5--|--5--5-----5--5----
D
|-|--7--7-----7--7-----7--7-----7--7-----7--8--7--8--|--7--7-----7--7----
A
|-|--5--5-----5--5-----5--5-----5--5-----5--5--5--5--|--5--5-----5--5----
D
|-|--5--5-----5--5-----5--5-----5--5-----5--5--5--5--|--5--5-----5--5----
guitar one electric (no distortion the first time through the intro and 
the first verses, second verses it has some distortion added but played
the same way)


guitar1
E
|-5--5-----5--5-----6--6--6--6--|--5--5-----5--5-----5--5-----5--5-----5-
B
|-8--8-----7--7-----5--5--5--5--|--7--7-----8--8-----5--5-----5--5-----5-
G
|-5--5-----5--5-----5--5--5--5--|--5--5-----5--5-----5--5-----5--5-----5-
D
|-7--7-----7--7-----7--8--7--8--|--7--7-----7--7-----7--7-----7--7-----7-
A
|-5--5-----5--5-----5--5--5--5--|--5--5-----5--5-----5--5-----5--5-----5-
D
|-5--5-----5--5-----5--5--5--5--|--5--5-----5--5-----5--5-----5--5-----5-


guitar1
E
|-6--6--6--6--5--|--5--5-----5--5-----5--5-----5--5-----5--5--5--5--5--5-
B
|-5--5--5--5--5--|--5--5-----8--8-----7--7-----5--5-----5--5--5--5--5--5-
G
|-5--5--5--5--5--|--5--5-----5--5-----5--5-----5--5-----7--9--9--9--9--7-
D
|-8--8--8--8--7--|--7--7-----7--7-----7--7-----7--7-----7--7--7--7--7--7-
A
|-5--5--5--5--5--|--5--5-----5--5-----5--5-----5--5-----5--5--5--5--5--5-
D
|-5--5--5--5--5--|--5--5-----5--5-----5--5-----5--5-----5--5--5--5--5--5-


guitar 2
E
|-|--2--2-----3--3-----3--3-----5--5-----5--5--5--5--5--5--|--2--2-----3-
B
|-|--3--3-----3--3-----3--3-----3--3-----3--3--3--3--3--3--|--3--3-----3-
G
|-|--2--2-----2--2-----2--2-----2--2-----2--3--3--3--3--2--|--2--2-----2-
D
|-|--0--0-----0--0-----0--0-----0--0-----0--0--0--0--0--0--|--0--0-----0-
A
|-|--0--0-----0--0-----0--0-----0--0-----0--0--0--0--0--0--|--0--0-----0-
D
|-|--------------------------------------------------------|-------------
guitar 2 played on acoustic intro and verses along with guitar 1


Fig A guitar 2
E
|-3-----3--3-----5--5-----5--5--5--5--5--5--|--2--2-----3--3-----3--3----
B
|-3-----3--3-----3--3-----3--3--3--3--3--3--|--3--3-----3--3-----3--3----
G
|-2-----2--2-----2--2-----2--3--3--3--3--2--|--2--2-----2--2-----2--2----
D
|-0-----0--0-----0--0-----0--0--0--0--0--0--|--0--0-----0--0-----0--0----
A
|-0-----0--0-----0--0-----0--0--0--0--0--0--|--0--0-----0--0-----0--0----
D
|-------------------------------------------|----------------------------


guitar 2
E
|-5--5-----5--5--5--5--5--5--|--5--5-----3--3-----2--2-----0--0-----2--2-
B
|-3--3-----3--3--3--3--3--3--|--3--3-----3--3-----3--3-----3--3-----3--5-
G
|-2--2-----2--3--3--3--3--2--|--2--2-----2--2-----2--2-----2--2-----2--3-
D
|-0--0-----0--0--0--0--0--0--|--0--0-----0--0-----0--0-----0--0-----0--0-
A
|-0--0-----0--0--0--0--0--0--|--0--0-----0--0-----0--0-----0--0-----0--0-
D
|----------------------------|-------------------------------------------



E
|-2--2--2--2-                                                           
B
|-5--5--5--3-                                                           
G
|-3--3--3--2-                                                           
D
|-0--0--0--0-                                                           
A
|-0--0--0--0-                                                           
D
|------------                                                           


Fig B guitar 3 filler added here and there
E
|----------------------|-                                               
B
|-11-13-15-13-11-13----|-                                               
G
|-------------------11-|-                                               
D
|----------------------|-                                               
A
|----------------------|-                                               
D
|----------------------|-                                               
guitar 3 fill line played over the verses here and there


Fig. C guitar 1 and 2
E
|------------------------------------------------------------------------
B
|------------------------------------------------------------------------
G
|-5--7-----7--7--7--5----------------------------------------------------
D
|-5--7-----7--7--7--5--2--3-----3--3--3--3--3--3--3--3--3--3--3--3--3--3-
A
|-3--5-----5--5--5--3--0--3-----3--3--3--3--3--3--3--3--3--3--3--3--3--3-
D
|-------------------------3-----3--3--3--3--3--3--3--3--3--3--3--3--3--3-
prechorus played on electric with heavy distortion "I'm still looking for
the answer.."



E
|------------------------------------------------------------------------
B
|------------------------------------------------------------------------
G
|-------------------------------------------------------11-11-11-9--9--9-
D
|-3--3--3--3--3--3--3--3--3-----3--5--5--5--5--3--0----------------------
A
|-3--3--3--3--3--3--3--3--3-----3--5--5--5--5--3--0-----9--9--9--7--7--7-
D
|-3--3--3--3--3--3--3--3--3-----3--5--5--5--5--3--0-----0--0--0--0--0--0-



E
|------------------------------------------------------------------------
B
|------------------------------------------------------------------------
G
|-7--7--7--7--7--7--11-11-11-9--9--9--7--7--7--7--7--7--------5--7-----7-
D
|-------------------------------------------------------------5--7-----7-
A
|-5--5--5--5--5--5--9--9--9--7--7--7--5--5--5--5--5--5--------3--5-----5-
D
|-0--0--0--0--0--0--0--0--0--0--0--0--0--0--0--0--0--0-------------------



E
|------------------------------------------------------------------------
B
|------------------------------------------------------------------------
G
|-7--7--5----------------------------------------------------------------
D
|-7--7--5--2--3-----3--3--3--3--3--3--3--3--3--3--3--3--3--3--3--3--3--3-
A
|-5--5--3--0--3-----3--3--3--3--3--3--3--3--3--3--3--3--3--3--3--3--3--3-
D
|-------------3-----3--3--3--3--3--3--3--3--3--3--3--3--3--3--3--3--3--3-



E
|------------------------------------------------------------------------
B
|------------------------------------------------------------------------
G
|------------------------------------------------------------------------
D
|-3--3--3--3--3-----3--5--5--5--5--3--0-----3--5--5--5--5--3--0-----3--5-
A
|-3--3--3--3--3-----3--5--5--5--5--3--0-----3--5--5--5--5--3--0-----3--5-
D
|-3--3--3--3--3-----3--5--5--5--5--3--0-----3--5--5--5--5--3--0-----3--5-



E
|----------------|-                                                     
B
|----------------|-                                                     
G
|----------------|-                                                     
D
|-5--5--5--3--0--|-                                                     
A
|-5--5--5--3--0--|-                                                     
D
|-5--5--5--3--0--|-                                                     


Fig. D guitar 1 and 2
E
|----------------------------------------------------------------------8-
B
|----------------------------------------------------------------------11
G
|----------------------------------------------------------------------10
D
|-0--0--0--0--0--0--0--0--0--0--0--0--0--0--0--0--3--5--5--5--5--3--0--8-
A
|-0--0--0--0--0--0--0--0--0--0--0--0--0--0--0--0--3--5--5--5--5--3--0--8-
D
|-0--0--0--0--0--0--0--0--0--0--0--0--0--0--0--0--3--5--5--5--5--3--0--8-
chorus played with electric with heavy distortion "I'm blaming the
truth..."



E |-8--------8--8--------8--8--------8--8--------8--8-------
B |-11-------11-11-------11-11-------11-11-------11-11------
G |-10-------10-10-------10-10-------10-10-------10-10------
D |-8--------8--8--------8--8--------8--8--------8--8--0----
A |-8--8--8--8--8--8--8--8--8--8--8--8--8--8--8--8--8--0----
D |-8--8--8--8--8--8--8--8--8--8--8--8--8--8--8--8--8--0----





     
Добавлено: 08.12.2013
Другие материалы по этой песне:
  • Аккорды и текст

Страница создана 08.12.2013
http://primanota.ru/reilly-david/blaming-the-truth-chords.htm
Привет, Гость.
Предлагаем пройти революционный курс по гитаре.
Подарок от PrimaNota.Ru, забирай!