PrimaNota.ru - самый крупный в мире бесплатный архив песенных текстов, аккордов, табулатур и нот


Regurigitator - Fat Cop - таба

Регистрация Запомнить меня
Войти через:  Facebook Google Twitter Vk Yandex Mail.ru

Regurigitator - Fat Cop - таба

Печатать
Просмотров: 62
Artist - Reguirgitator
Song - Fat Cop
Album - Eduardo & Rodgriguez Wage War On T-Wrecks (2001)


This great song is most definetly the easiest song I have ever
tabbed and it take a resonably small amount of effort to make
it sound great.

Make sure distortion is up all the way
Verse
e|-------------------------------------------------|
B|-------------------------------------------------|
G|-------------------------------------------------|
D|-------------------------------------------------|
A|-------------------------------------------------|
E|-0-2-2-2-3--0-2-3-3-5--0-5-5-5-3--3-3-2-3-2-3-2-0|


Bridge
e|-----------------------------------|
B|-----------------------------------|
G|-----------------------------------|
D|-----------------------------------|
A|-----------------------------------|
E|-5-5-5-4--5-5-5-4--5-5-5-4--5-5-5-4|


Chorus
e|-----------------------------------------|
B|--------7-7-7--7-------------------------|
G|-9-9-9--8-8-8--8--12-12-12--14-14-14--14-|
D|-9-9-9--9-9-9--9--12-12-12--14-14-14--14-|
A|-7-7-7--7-7-7--7--10-10-10--12-12-12--12-|
E|-7-7-7--7-7-7--7--10-10-10--12-12-12--12-|

Order
Verse X4
Bridge X1
Chorus X2
Verse X3
Bridge X1
Chorus X2
Electronic Interval
Verse X3
Bridge X1
Chorus X4  then X4 for ending
           As always, listen to the song for timing
     
Добавлено: 18.07.2013
Другие материалы по этой песне:
  • Аккорды и текст

Страница создана 18.07.2013
http://primanota.ru/regurigitator/fat-cop-chords.htm
Привет, Гость.
Предлагаем пройти революционный курс по гитаре.
Подарок от PrimaNota.Ru, забирай!