PrimaNota.ru - самый крупный в мире бесплатный архив песенных текстов, аккордов, табулатур и нот


Regurgitator - Just Another Beautiful Story - аккорды и текст, видео

Регистрация Запомнить меня
Войти через:  Facebook Google Twitter Vk Yandex Mail.ru

Regurgitator - Just Another Beautiful Story - аккорды и текст, видео

Печатать
Просмотров: 59
Just Another Beautiful Story
Regurgitator
-------------------------------------------------------------------------------
                REGURGITATOR - Just Another Beautiful Story
-------------------------------------------------------------------------------
Tabbed by: Seismatters
Tuning: Standard E A D G B E

Intro (Part I)
e|-------2--5-----5--3--2----------------------------------------------------|
B|-3--5----------------------------------------------------------------------|
G|-------------3-------------------------------------------------------------|   x4
D|---------------------------------------------------------------------------|
A|---------------------------------------------------------------------------|
E|---------------------------------------------------------------------------|

Intro (Part II) + Verse (All that I am and all I'll ever be, is a brain in a body...)
e|-2--2--2--2--2--2--2--2----------------------------------------------------|
B|-3--3--1--1--0--0--3--3----------------------------------------------------|
G|-2--2--2--2--2--2--3--3----------------------------------------------------|
D|---------------------------------------------------------------------------|
A|---------------------------------------------------------------------------|
E|---------------------------------------------------------------------------|

PRE CHORUS
G A D        C              G    
    All I've heard and it's true,
  A D                 C               G
    There ain't no God there's just me and you.
  A   D              C               G
    I don't see a point to this place,
  A         D           C             G
    But I'm happy to be floating in space...

CHORUS
   D       C              G          A
   I won't mind if you're holding my hand,
   D             C             G           A
   Life seems so fine when you don't understand it.
        D           C            G             A
   The world turns around and it don't give a damn
         D        C            G               A
   if we all die away and we never come back again.
Добавлено: 03.09.2015
Вам также может быть интересно:
Другие материалы по этой песне:
  • Аккорды и текст

Страница создана 12.04.2012
http://primanota.ru/regurgitator/just-another-beautiful-story-chords.htm
Привет, Гость.
Предлагаем пройти революционный курс по гитаре.
Подарок от PrimaNota.Ru, забирай!