PrimaNota.ru - самый крупный в мире бесплатный архив песенных текстов, аккордов, табулатур и нот


Regulo Caro - Emilio Caro Quintero - таба, видео

Регистрация Запомнить меня
Войти через:  Facebook Google Twitter Vk Yandex Mail.ru

Regulo Caro - Emilio Caro Quintero - таба, видео

Печатать
Просмотров: 160
Уроки эстрадного вокала в Санкт-Петербурге
Estos son los acordes:
     F            C7          Bb
e |--1--|    e |-----|    e |--3--|
B |--1--|    B |--1--|    B |--3--|
G |--2--|    G |--3--|    G |--3--|
D |--3--|    D |--2--|    D |--3--|
A |-----|    A |--3--|    A |-----|
E |-----|    E |-----|    E |-----|

Requinto:
                         C7                         F
e |--8--8---8--8-12-12-12-10-10-10-12-15-13-12--10--8|
B |-10-10--10-10-13-13-13-11-11-11-13-17-15-13--11-10|
G |--------------------------------------------------|
D |--------------------------------------------------|
A |--------------------------------------------------|
E |--------------------------------------------------|

e |--------------------------------------------------|
B |-6--6-5-3-----------------------------------------|
G |----------5-3-5-3-2-------------------------------|
D |--------------------5-3--3-2----------------------|
A |-----------------------------5-3-5-3-1------------|
E |---------------------------------------5-3-1------|

F                                C7
Salieron de Culiacan, al último recorrido
                                      F
En avion particular, iban Gilberta y Emilio
                   Bb    C7                F
Se dirijieron al sitio, era su pueblo querido

                                                C7
Después de dar varias vueltas, hablando por celular
                                               F
Se despidió de sus primos, no sabia que iba pasar
                      Bb    C7                 F
Se fueron para otro sitio, que triste fue su final
                                                C7
Dise la gente del pueblo, cuando escucho la explosión
                                              F
El avion en vuelto en llamas, en un arrollo quedo
                           Bb    C7               F
disen  que el cuerpo de Emilio, la mitad se le quemo

                         C7                         F
e |--8--8---8--8-12-12-12-10-10-10-12-15-13-12--10--8|
B |-10-10--10-10-13-13-13-11-11-11-13-17-15-13--11-10|
G |--------------------------------------------------|
D |--------------------------------------------------|
A |--------------------------------------------------|
E |--------------------------------------------------|

e |--------------------------------------------------|
B |-6--6-5-3-----------------------------------------|
G |----------5-3-5-3-2-------------------------------|
D |--------------------5-3--3-2----------------------|
A |-----------------------------5-3-5-3-1------------|
E |---------------------------------------5-3-1------|


                                             C7
Adios mis padres queridos, y mis hermanos también
                                               F
Perdon le pido ami esposa, por que se que le falle
                       Bb    C7             F
Ahi les encargo amis hijos, y mi hermanito jose

                                              C7
Adios caballo el zarape, ya no te vuelvo a montar
                                                F
Eras tan bueno bailando, para mi no avia otro igual
                       Bb     C7            F
fue un regalo de un amigo, Siempre me recordaras

                                              C7
Pongan atencion señores, no se juega con la vida
                                             F
Es ofenca para Dios, el te la da el te la quita
              Bb    C7               F
El 14 de febrero, ese fue su ultimo dia

                                              C7
A los que me acompañaron, al funeral y al sepelio
                                                F
A todos les doy las gracias, por su cariño sincero
                     Bb     C7             F
Ya se despido de ustedes, Emilio Caro Quintero

Aquí les dejo este corrido, cualquier duda les dejo
mi correo, espero que les guste ;)
Luis_arreguin_nrx95@
Добавлено: 31.05.2016
Другие материалы по этой песне:
  • Аккорды и текст

Страница создана 31.05.2016
http://primanota.ru/regulo-caro/emilio-caro-quintero-chords.htm
Привет, Гость.
Предлагаем пройти революционный курс по гитаре.
Подарок от PrimaNota.Ru, забирай!