PrimaNota.ru - самый крупный в мире бесплатный архив песенных текстов, аккордов, табулатур и нот


Regulo Caro - El 20 De Diciembre - таба, видео

Регистрация Запомнить меня
Войти через:  Facebook Google Twitter Vk Yandex Mail.ru

Regulo Caro - El 20 De Diciembre - таба, видео

Печатать
Просмотров: 85
|--14--|--14--|--10--|-14-|-10-|-14-|-14-|-10-|-14-|-14-|
|--12--|--12--|--9---|-12-|--9-|-12-|-12-|-9--|-12-|-12-|

|-14-|-14-|-14-|-14-|-10-|-14-|-10-|-14-|-14-|-10-|-14-|-14-|
|-12-|-12-|-12-|-12-|-9--|-12-|-9--|-12-|-12-|-9--|-12-|-12-|

ESTA PARTECITA VA MAS RAPIDO
|-10-|-10-|-9-|-7-|-5-|
|-9--|-9--|-7-|-5-|-3-|

|-10-|-10-|-9-|-9-|-9-|-7-|-7-|-7-|-5-|-5-|-5-|
|-9--|-9--|-7-|-7-|-7-|-5-|-5-|-5-|-3-|-3-|-3-|
         DO(UN RASGUEO HACIA ABAJO)
|-----|-----|-----|-----|-----|-----|
|--3--|--3--|--0--|--2--|--3--|-----|
|-----|--2--|-----|-----|-----|--2--|
|-----|-----|-----|-----|-----|-----|
|-----|--1--|-----|-----|-----|-----|
|-----|-----|-----|-----|-----|-----|
  LA
|-----|-----|-----|----|----|----|
|-----|-----|-----|----|----|----|
|-----|-----|--7--|----|----|----|
|-----|--6--|-----|----|----|----|
|--5--|-----|-----|----|----|----|
|--5--|-----|-----|----|----|----|

LA              MI
Solo bastaron minutos
                      LA
Pá forcejear con la muerte
       RE       MI
Aqui sentir lo bonito
           RE               MI
Matar en defensa pá seguir vivo
            RE       MI         LA
Al primer impacto enrosque el gatillo

LA               MI
Si quisieron levantarme
                  LA
Les falto para atorarme
            RE     MI
Cuando la troca rodearon
            RE      MI
Ahi se les fue complicando
   RE   MI     LA
La 38 solto balazos

LA7     RE           MI
Y aquellos que se escaparon
                   LA
Aqui les dejo un recado
   RE       MI
El 25 de diciembre
          RE           MI
Les va a llegar mas temprano
          RE                  MI
A todos ustedes les tengo un regalo
         RE      MI    LA
Uno por uno los ire cazando

INTRO
LA                 MI
Quemamos varios cartuchos
                           LA
Yo con la super les pegue duro
      RE          MI
Manoteabamos la puerta
          RE              MI
Yo desde adentro de la camioneta
          RE    MI      LA
Gano la super contra metralleta

LA                 MI
Balas rompieron cristales
                  LA
Senti mi carne quemarse
      RE             MI
Y si esto fue una emboscada
     RE             MI
Que les quede de enseñanza
           RE      MI         LA
Lo que le dijo el pato a una ganza


LA7    RE            MI
Y aquellos que se escaparon
                   LA
Aqui les dejo un recado
    RE       MI
El 25 de diciembre
           RE          MI
Les va a llegar mas temprano
           RE                 MI
A todos ustedes les tengo un regalo
        RE       MI   LA
Uno por uno los ire cazando
Добавлено: 31.05.2016
Вам также может быть интересно:
Другие материалы по этой песне:
  • Аккорды и текст

Страница создана 31.05.2016
http://primanota.ru/regulo-caro/el-20-de-diciembre-chords.htm
Привет, Гость.
Предлагаем пройти революционный курс по гитаре.
Подарок от PrimaNota.Ru, забирай!