PrimaNota.ru - самый крупный в мире бесплатный архив песенных текстов, аккордов, табулатур и нот


Refused - Worthless Is The Freedom Bought - текст песни, таба, видео

Регистрация Запомнить меня
Войти через:  Facebook Google Twitter Vk Yandex Mail.ru

Refused - Worthless Is The Freedom Bought - текст песни, таба, видео

Печатать
Просмотров: 115
Intro                               Verse
E|------------------------------3---------|----------------------------------|
B|----------------------------------(x )--|----------------------------(x )--|
G|-----------------------5-5-5------------|---------5-7-5--7-5---------------|
D|--7-7-7-7--3-3-3-3--5--5-5-5------------|--7-3--7-5-7-5--7-5---------------|
A|--7-7-7-7--3-3-3-3--5--3-3-3------------|--7-3--7-3-5-3--5-3---------------|
E|--5-5-5-5--1-1-1-1--3-------------------|--5-1--5--------------------------|

   Chorus
E|---------------------------------------------------------------------------|
B|---------------------------------------------------------------------------|
G|--10-10-10-10-10-10-10-10-10-10-10-10-10-10-10-10-10-10-10-10-10-10-10-----|
D|--10-10-10-10-10-10-10-10-10-10-10-10-10-10-10-10-10-10-10-10-10-10-10-----|
A|--8--8--8--8--8--8--8--8--8--8--8--8--8--8--8--8--8--8--8--8--8--8--8------|
E|---------------------------------------------------------------------------|

   Verse                                Break           
E|---------------------------|--------|------------------------------------|--3-3-3-3--|       
B|---------------------(x )--|--------|------------------------------(x )--|-----------|       
G|---------5-7-5--7-5--------|--4-----|-----------------------5-5-5--------|-----------| Repeat 
D|--7-3--7-5-7-5--7-5--------|--4--2--|--7-7-7-7--3-3-3-3--5--5-5-5--------|-----------| Chorus 
A|--7-3--7-3-5-3--5-3--------|--2--2--|--7-7-7-7--3-3-3-3--5--3-3-3--------|-----------|      
E|--5-1--5-------------------|-----0--|--5-5-5-5--1-1-1-1--3---------------|-----------|    

E|-------||
B|-------||
G|-------||
D|--5-2--||
A|--5-2--||
E|--3-0--||
Добавлено: 24.02.2012
Другие материалы по этой песне:
  • Аккорды и текст

Страница создана 24.02.2012
http://primanota.ru/refused/worthless-is-the-freedom-bought-chords.htm
Привет, Гость.
Предлагаем пройти революционный курс по гитаре.
Подарок от PrimaNota.Ru, забирай!