PrimaNota.ru - самый крупный в мире бесплатный архив песенных текстов, аккордов, табулатур и нот


Refused - Worms Of The Senses - текст песни, таба, видео

Регистрация Запомнить меня
Войти через:  Facebook Google Twitter Vk Yandex Mail.ru

Refused - Worms Of The Senses - текст песни, таба, видео

Печатать
Просмотров: 78



From: Mathias Klippinge 
Subject: r/refused/worms_of_the_senses.tab
Date: Thu, 09 Jul 1998 11:08:20 PDT

Band:  Refused
Title: Summerholidays vs Punkroutine
Album: Shape of Punk to Come

Chords used:
        EADGHe
Bm7     x24232
Bm7sus2 x24252  ( You tell ME what this chord is called  Sus-something 
I believe )
B8      7x4x7x  ( The name *shrug* )


* - SuMMeRhOliDayS vS. PuNkRoUTiNe - *

[Riff1]
G--11-11---11-11-11---11-11-11---11-11-11---11-

[Riff2]
G--11-11-11-11-11-11-11-11-9-9-9-9-9-9-9-9-7-7-7-7-7-7-7-7-5-5-5-5-4-4-4-4-
D--------------------------------------------------------------------------
A---9--9--9--9--9--9--9--9-7-7-7-7-7-7-7-7-5-5-5-5-5-5-5-5-3-3-3-3-2-2-2-2-

[Riff2b]
G--11-11-11-11-9-9-9-9-7-7-7-7-5-5-4-4-
D--------------------------------------
A---9--9--9--9-7-7-7-7-5-5-5-5-3-3-2-2-

[Riff3a]
G--9-9-9--------9-9-9-11-11-9-11---10-10-10--7--7------------11-
D--------------------------------------------7--7--7-7-7-7-7----
A--7-7-7--------7-7-7--9--9-7--9----8--8--8--5--5-------------9-
E---------0--0-------------------------------------5-5-5-5-5----

[Riff3b]
G--9-9-9--------9-9-9-11-11-9-11---10-10-10--7--7------------------
D--------------------------------------------7--7--7-7-7-109-109-
A--7-7-7--------7-7-7--9--9-7--9----8--8--8--5--5------------------
E---------0--0-------------------------------------5-5-5--87--87-


[Riff4a]
G--9-9-9----9-9-9---11-11-11--7-7--11-11-11--7-7-
D-----------------------------7-7------------7-7-
A--7-7-7----7-7-7----9--9--9--5-5---9--9--9--5-5-

[Riff4b]
G--9-9-9-----9-9-9----11-11-11--7-7--11-11-11--7-7-
D-------------------------------7-7------------7-7-
A--7-7-7-----7-7-7-----9--9--9--5-5---9--9--9--5-5-
E--------0-0-------0-0-----------------------------

[Riff5]
G------9-
D--5-7-9-
A--3-5-7-
E--3-5-7-

[Riff6]
G--x-x-7-7-7-7-7-7-5-5-5-5-4-4-4-4-
D--x-x-----------------------------
A--x-x-5-5-5-5-5-5-3-3-3-3-2-2-2-2-

Riff1  (x2)
Riff1 + Riff2  (x4)
Riff1  (x4)
Riff3a (x2)
Riff1  (x2)
Riff1 + Riff2  (x2)
Riff3a (x3)
Riff3b
Riff4a (x4)    (A few guitar channels here...)

Riff1
Riff1 + Bm7 B7sus2 B8 B8  (x4)
Riff5

Riff6
Riff3a  (x3)
Riff3b
Riff4b   (x1 1/2)
Riff2b




______________________________________________________
Get Your Private, Free Email at http://www.hotmail.com


Добавлено: 08.01.2014
Другие материалы по этой песне:
  • Аккорды и текст

Страница создана 03.06.2012
http://primanota.ru/refused/worms-of-the-senses-chords.htm
Привет, Гость.
Предлагаем пройти революционный курс по гитаре.
Подарок от PrimaNota.Ru, забирай!