PrimaNota.ru - самый крупный в мире бесплатный архив песенных текстов, аккордов, табулатур и нот


Refused - Protest Song 68 - текст песни, таба, видео

Регистрация Запомнить меня
Войти через:  Facebook Google Twitter Vk Yandex Mail.ru

Refused - Protest Song 68 - текст песни, таба, видео

Печатать
Просмотров: 121
Refused - Protest Song '68

Album: The Shape Of Punk To Come
Instrument: Guitar
Tuning: eBGDAE

Tabbed By: Rolf Oslo


Intro / Verse

e||-----2-0-2-------|
B||-----------------|
G||---0-------0---0-|
D||-4-----------4---|
A||-----------------|
E||-----------------|


Chorus

e||----------------|
B||----------------|
G||----------------|
D||-6---3---2------|
A||-6---3---2------|
E||-4---1---0------|



Acoustic Part

e||-------0---------|-------0---------|-------0---------|-------0---------|
B||---2-------2---2-|---2-------2---2-|---2-------2---2-|---2-------2---2-|
G||-4---4---4---4---|-4---4---4---4---|-4---4---4---4---|-4---4---4---4---|
D||-----------------|-----------------|-----------------|-----------------|
A||-----------------|-----------------|-----------------|-----------------|
E||-----------------|-----------------|-----------------|-----------------|

e||-------0---------|-------0---------|-------0---------|-------0---------|
B||---3-------3---3-|---3-------3---3-|---2-------2---2-|---2-------2---2-|
G||-----4---4-------|-----4---4-------|-4---4---4---4---|-4---4---4---4---|
D||-0-----------0---|-0-----------0---|-----------------|-----------------|
A||-----------------|-----------------|-----------------|-----------------|
E||-----------------|-----------------|-----------------|-----------------|

e||-------0---------|-------0---------|-------0---------|-------0---------|
B||---2-------2---2-|---2-------2---2-|---3-------3---3-|---3-------3---3-|
G||-2---2---2---2---|-2---2---2---2---|-----4---4-------|-----4---4-------|
D||-----------------|-----------------|-0-----------0---|-0-----------0---|
A||-----------------|-----------------|-----------------|-----------------|
E||-----------------|-----------------|-----------------|-----------------|

e||-------0---------|-------0---------|-------0---------|-------0---------|
B||---2-------2---2-|---2-------2---2-|---2-------2---2-|---2-------2---2-|
G||-4---4---4---4---|-2---2---2---2---|-1---1---1---1---|-----------------|
D||-----------------|-----------------|-----------------|-4---4---4---4---|
A||-----------------|-----------------|-----------------|-----------------|
E||-----------------|-----------------|-----------------|-----------------|

e||-------0---------|-------0---------|-------0---------|-------0---------|
B||---3-------3---3-|---3-------3---3-|---2-------2---2-|---2-------2---2-|
G||-----4---4-------|-----4---4-------|-4---4---4---4---|-----------------|
D||-0-----------0---|-5-----------5---|-----------------|-4---4---4---4---|
A||-----------------|-----------------|-----------------|-----------------|
E||-----------------|-----------------|-----------------|-----------------|

e||-------0---------|-------0---------|-------0---------|-------0---------|
B||---3-------3---3-|---3-------3---3-|---3-------3---3-|---3-------3---3-|
G||-4---4---4---4---|-2---2---2---2---|-----4---4-------|-----4---4-------|
D||-----------------|-----------------|-5-----------5---|-0-----------0---|
A||-----------------|-----------------|-----------------|-----------------|
E||-----------------|-----------------|-----------------|-----------------|

e||-------0---------|-------0---------|-------0---------|-------0---------|
B||---2-------2---2-|---2-------2---2-|---3-------3---3-|---3-------3---3-|
G||-2---2---2---2---|-----------------|-----4---4-------|-----4---4-------|
D||-----------------|-4---4---4---4---|-5-----------5---|-5-----------5---|
A||-----------------|-----------------|-----------------|-----------------|
E||-----------------|-----------------|-----------------|-----------------|

e||-------0---------|-------0-------|
B||---3-------3---3-|---3-------3---|
G||-----4---4-------|-----4---4-----|
D||-5-----------5---|-5-----------5-|
A||-----------------|---------------|
E||-----------------|---------------|

Still working on the next part


then
Outro

e||------------------|----------------------------|--------------------|----------------|
B||------------------|----------------------------|--------------------|----------------|
G||------------------|--------------4-4-5-5-------|--------------------|----------------|
D||-------------2----|-5--5-6-6---6---------6-6---|-10-10-3-3---3/5----|-5\2------------|
A||-------3----------|----------------------------|--------------------|-------2-3------|
E||-4----------------|----------------------------|--------------------|-------------4--|
Добавлено: 22.05.2012
Другие материалы по этой песне:
  • Аккорды и текст

Страница создана 22.05.2012
http://primanota.ru/refused/protest-song-68-chords.htm
Привет, Гость.
Предлагаем пройти революционный курс по гитаре.
Подарок от PrimaNota.Ru, забирай!