PrimaNota.ru - самый крупный в мире бесплатный архив песенных текстов, аккордов, табулатур и нот


Refused - Its Not Alright To Say Everythings Ok - таба, видео

Регистрация Запомнить меня
Войти через:  Facebook Google Twitter Vk Yandex Mail.ru

Refused - Its Not Alright To Say Everythings Ok - таба, видео

Печатать
Просмотров: 80
Song:    It's Not Alright to Say Everything's Ok
Artist:  Refused
Album:   Songs to Fan the Flames of Discontent (track 6)
Label:   Burning Heart

Tabbed By Edd Dawson. All my own work.
Questions? Comments? Corrections? Shout at me at ma0etd@bath.ac.uk

There seemed to be a distinct lack of Refused tabs at  so I thought
I'd tab out some of the ones I know.

Does anyone know how to play coup d'etat? If so PLEASE tell me, I can't
be bothered to work it out :)

This song is in standard tuning: EADGBe (low to high)

For this song use a lot of gain, a fair amount of treble and a lowish
to medium bass setting; you want quite an attacky sound.
You'll need to be able to chug pretty fast also to be able to play it
well. I'd tried to give some sort of indication of timing - don't know
how successful I was but you can't say I didn't try.

A bit of notation:

M  =  palm mute
/ \ = upward and downward slides respectively
.  =  truncate the note soon after playing it i.e do not let it ring out.
h  =  hammer on
p  =  pull off


Song structure

Verse (a)   x6
Verse (b)   x2
Verse (a)   x2
Chorus      x2
Verse (a)   x4
Verse (b)   x2
Verse (a)   x2
Ending      x1
Now a small pause and then into Crusader of Hopelessness (which I've also
posted the tab of - so go get!)

Verse (a)
=========
Note that in the second half of the riff, the slide at the end is
slightly later.
E|-------------------------|-------------------------|
B|-------------------------|-------------------------|
G|-------------------------|-------------------------|
D|-----------------5-\-4.--|-----------------5--\4.--|
A|-4-4-4-4-4-4-4-4-3-\-2.--|-4-4-4-4-4-4-4-4-3--\2.--|
E|-2-2-0-0-2-2-0-0--------0|-2-2-0-0-2-2-0-0---------|
   M M M M M M M M        M  M M M M M M M M


Verse (b)
=========
Note that in the second half of the riff, the slide at the end is
slightly later.
E|-------------------------|--------------------------|
B|-------------------------|--------------------------|
G|-------------------------|--------------------------|
D|-----------------5-\-4.--|-----------------5--\4.---|
A|-4---4---4---4---3-\-2.--|-4---4---4---4---3--\2.---|
E|-2-p-0---0-h-2----------0|-2-p-0---0-h-2------------|


Chorus
======
E|---------------------------|--------------------------------|
B|---------------------------|--------------------------------|
G|------4p0-5p0--------------|------4p0-5p0-------------------|
D|---------------------------|--------------------------------|
A|-2---------------3---------|-2------------3--3-333-3/6-6\5.-|
E|-0---------------1---------|-0------------1--1-111-1/4-4\3.-|
                                               M MMM
                
E|---------
B|---------
G|---------
D|---------
A|---3-3-3-
E|-0-1-1-1-

     
Добавлено: 23.09.2013
Другие материалы по этой песне:
  • Аккорды и текст

Страница создана 23.09.2013
http://primanota.ru/refused/its-not-alright-to-say-everythings-ok-chords.htm
Привет, Гость.
Предлагаем пройти революционный курс по гитаре.
Подарок от PrimaNota.Ru, забирай!