PrimaNota.ru - самый крупный в мире бесплатный архив песенных текстов, аккордов, табулатур и нот


Refused - are fucking dead - таба, видео

Регистрация Запомнить меня
Войти через:  Facebook Google Twitter Vk Yandex Mail.ru

Refused - are fucking dead - таба, видео

Печатать
Просмотров: 86
Уроки эстрадного вокала в Санкт-Петербурге



Date: Sun, 4 May 2003 02:57:25 -0700 (PDT)
From: Brandon Prettyman 
Subject: r/refused/refused_are_fucking_dead.tab

Band: The Refused
Song: Refused Are Fucking Dead
Album: The Shape Of Punk To Come: A Chimerical
Bombination In 12 Bursts
Tabbed by: Brandon Prettyman (americanzer0@yahoo.com)

Standard Tuning

I attempted to get the rhythm correct on the tabs but
you probably
should still listen to the song to get it perfect.
Plus the bridge
(yeah, get down part) I can't tab due to the lack of
a wah pedal.
Maybe this could be a start point for someone wiht a
wah pedal to 
finish off.

Intro: Very Heavy Distortion

e|-------------------------------------------------------------------
B|-------------------------------------------------------------------
G|-------------------------------------------------------------------
D|-------------5---------------------------------5---5---------------
A|-5-x-x-5-x-x-3-x-5-x-5-5-5-6-6-5---5-x-x-5-x-x-3-x-3-x-5-5-5-6-6-5-
E|-3-x-x-3-x-x---x-3-x-3-3-3-4-4-3---3-x-x-3-x-x---x---x-3-3-3-4-4-3-

Regular distortion rest of song

Rhythm Figure 1

e|---------------------------------------------------------------
B|---------------------------------------------------------------
G|---------------------------------------------------------------
D|---------------------------------------------------------------
A|-5---x-x-5-5-5-5-x-x-x-5-x-x-x-5-5---x-x-5-5-5-5-x-x-x-5-x-x-x-
E|-3---x-x-3-3-3-3-x-x-x-3-x-x-x-3-3---x-x-3-3-3-3-x-x-x-3-x-x-x-

Main Riff

e|---------------------------
B|-2p0-----2h3---------------
G|-----3p0-----3-3-3-2h3p2p0-
D|---------------------------
A|---------------------------
E|---------------------------

Riff A

e|--------------------------------------------------
B|--------------------------------------------------
G|-2~-------------------2^--------------------------
D|--------------------------------------------------
A|--------------------------------------------------
E|--------------------------------------------------
			slow bend release

Riff B

e|--------------------------
B|-2-2-2-2-2p0--5--5--5p3p0-
G|--------------------------
D|--------------------------
A|--------------------------
E|--------------------------

Riff C

e|--------------3--3--3p1p0-
B|-3-3-3-3-3h5--------------
G|--------------------------
D|--------------------------
A|--------------------------
E|--------------------------

Riff D

e|--------------------------------------
B|-2-2-2-3-5-5-5-5----------------------
G|-----------------3-3-3-3-2-2-2--------
D|-------------------------------3~-----
A|--------------------------------------
E|--------------------------------------
  PM---------------------------|

Rhythm Figure 2

e|-------------------------------------------------
B|-------------------------------------------------
G|-9--9----9-9-9--9-----9-3--3----3-3-3--3-----3/-
D|-7--7----7-7-7--7-----7-3--3----3-3-3--3-----3/-
A|-5--5----5-5-5--5-----5-1--1----1-1-1--1-----1/-
E|-------------------------------------------------

Song Order:

Intro 3x
Rhythm Figure 1 8x
Main Riff 20x (12th time end with G5 chord)
Riff A 2x
Main Riff 4x 
Riff B 4x
Riff C 3x
Riff D 1x
Main Riff 8x 
Rhythm Figure 1 8x
Main Riff 4x
Bridge ()
Rhythm Figure 2 4x

End with open low E


Добавлено: 04.12.2013
Другие материалы по этой песне:
  • Аккорды и текст

Страница создана 04.12.2013
http://primanota.ru/refused/are-fucking-dead-chords.htm
Привет, Гость.
Предлагаем пройти революционный курс по гитаре.
Подарок от PrimaNota.Ru, забирай!