PrimaNota.ru - самый крупный в мире бесплатный архив песенных текстов, аккордов, табулатур и нот


Refreshments - Wanted acoustic version - таба, видео

Регистрация Запомнить меня
Войти через:  Facebook Google Twitter Vk Yandex Mail.ru

Refreshments - Wanted acoustic version - таба, видео

Печатать
Просмотров: 55


WANTED (Live)
As recorded by Refreshments
(From the 2000 Album ACOUSTIC SINGLE)


	



Gtr I (E A D G B E) - 'Untitled'

 4/4
  Gtr I
  W          Q  E E E Q  E   E E E  S  E E  E  Q    E E E Q  E E E
|-3--------|-3--3-3---0--0-|-0-0-0-(0)-0-0-(0)-3--|-3-3---2--2-2-2-|--|
|-3--------|-3--3-3---1--1-|-1-1-1-(1)-1-1-(1)-3--|-3-3---3--3-3-3-|--|
|-0--------|-0--0-0-0-0--0-|-0-0-0-(0)-0-0-(0)-0--|-0-0-0-2--2-2-2-|--|
|-0--------|-0--0-0-0-2--2-|-2-2-2h=3--2-2h=3--0--|-0-0-0-0--0-0-0-|--|
|-2--------|-2--2-2-0-3--3-|-3-3-3-(3)-3-3-(3)-2--|-2-2-0----------|--|
|-3--------|-3--3-3--------|-------------------3--|-3-3------------|--|


  E  S  E E E E  S  E E   E Q  E E E Q  E
|-2h=3--3-3-3-3p=2--2-2-|-2-3--3-3---0--0-|
|-3-(3)-3-3-3-3-(3)-3-3-|-3-3--3-3---1--1-|
|-2-(2)-2-2-2-2-(2)-2-2-|-2-0--0-0-0-0--0-|
|-0-(0)-0-0-0-0-(0)-0-0-|-0-0--0-0-0-2--2-|
|-----------------------|---2--2-2-0-3--3-|
|-----------------------|---3--3-3--------|


  E E Q  E E E Q    E E E Q  E E E   Q  E
|-0---2--2-2-0-0--|-0-0---3--3-3---|-0--0---|
|-1---3--3-3-0-1--|-1-1---3--3-3---|-1--1---|
|-0-0-2--2-2-0-0--|-0-0-0-0--0-0-0-|-0--0---|
|-2-0-0--0-0---2--|-2-2-0-0--0-0-0-|-2--2---|
|-3-0----------3--|-3-3-0-2--2-2-0-|-3--3---|
|-----------------|-------3--3-3---|--------|


  E E Q  E E E  S  E   E E E  S  E E E Q    E E E Q  E E E
|-0---2--2-2-2h=3--3-|-3-3-3p=2--2-2-2-3--|-3-3---0--0-0---|
|-1---3--3-3-3-(3)-3-|-3-3-3-(3)-3-3-3-3--|-3-3---1--1-1---|
|-0-0-2--2-2-2-(2)-2-|-2-2-2-(2)-2-2-2-0--|-0-0-0-0--0-0-0-|
|-2-0-0--0-0-0-(0)-0-|-0-0-0-(0)-0-0-0-0--|-0-0-0-2--2-2-0-|
|-3-0----------------|-----------------2--|-2-2-0-3--3-3-0-|
|--------------------|-----------------3--|-3-3------------|


  Q  E E E Q  E   E E Q  Q  E E   E Q  E E   Q
|-2--2-2-0-0--0-|-0---3--3--3-3-|---0--0-0-|-3-|
|-3--3-3-0-1--1-|-1---3--3--3-3-|---1--1-1-|-3-|
|-2--2-2-0-0--0-|-0-0-0--0--0-0-|-0-0--0-0-|-0-|
|-0--0-0---2--2-|-2-0-0--0--0-0-|-0-2--2-2-|-0-|
|----------3--3-|-3-0-2--2--2-2-|-0-3--3-3-|-2-|
|---------------|-----3--3--3-3-|----------|-3-|


    S S S S S S S S S S S S S
||--3-x-x-0-0-x-2-2-x-0-0-0-0--||-|
||o-3-x-x-1-1-x-3-3-x-1-1-0-0-o||-|
||--0-x-x-0-0-x-2-2-x-0-0-0-0--||-|
||--0-x-x-2-2-x-0-0---2-2-2-2--||-|
||o-2-x-x-3-3-x-------3-3-3-3-o||-|
||--3-x-x----------------------||-|


    S S S S S S S S S S S S S     S S S S S S H
||--3-3-x-0-0-x-2-2-x-0-0-0-0--||-3-3-x-0-0-x-2-|
||o-3-3-x-1-1-x-3-3-x-1-1-0-0-o||-3-3-x-1-1-x-3-|
||--0-0-x-0-0-x-2-2-x-0-0-0-0--||-0-0-x-0-0-x-2-|
||--0-0-x-2-2-x-0-0---2-2-2-2--||-0-0-x-2-2-x-0-|
||o-2-2-x-3-3-x-------3-3-3-3-o||-2-2-x-3-3-x---|
||--3-3-x----------------------||-3-3-x---------|


    Q  Q  Q  Q    Q  Q  Q  Q      H        Q    Q
||--3--3--0--0--|-2--2--0--0---||-2--------3----0-----||
||o-3--3--1--1--|-3--3--1--1--o||-3--------3----1----o||
||--0--0--0--0--|-2--2--0--0---||-2--------0----0-----||
||--0--0--2--2--|-0--0--2--2---||-0--------0----2-----||
||o-2--2--3--3--|-------3--3--o||----------2----3----o||
||--3--3--------|--------------||----------3----------||


    S H    H    H      H    H    H    H        H    S S S S S S S S
||--3-3----0----0----|-2----2----0----0-----||-2----3-3-3-3-3-3-3-3-|
||o-3-3----1----1----|-3----3----1----1----o||-3----3-3-3-3-3-3-3-3-|
||--0-0----0----0----|-2----2----0----0-----||-2----0-0-0-0-0-0-0-0-|
||--0-0----2----2----|-0----0----2----2-----||-0----0-0-0-0-0-0-0-0-|
||o-2-2----3----3----|-----------3----3----o||------2-2-2-2-2-2-2-2-|
||--3-3--------------|----------------------||------3-3-3-3-3-3-3-3-|


  S S S S S S S S S S S S S S S S   S S S S S S S S S S S S S S S S
|-3-3-3-0-0-0-0-0-0-0-0-0-0-0-0-2-|-2-2-2-2-2-2-2-2-2-2-0-0-0-0-0-0-|----|
|-3-3-3-1-1-1-1-1-1-1-1-1-1-1-1-3-|-3-3-3-3-3-3-3-3-3-3-1-1-1-1-1-1-|----|
|-0-0-0-0-0-0-0-0-0-0-0-0-0-0-0-2-|-2-2-2-2-2-2-2-2-2-2-0-0-0-0-0-0-|----|
|-0-0-0-2-2-2-2-2-2-2-2-2-2-2-2-0-|-0-0-0-0-0-0-0-0-0-0-2-2-2-2-2-2-|----|
|-2-2-2-3-3-3-3-3-3-3-3-3-3-3-3---|---------------------3-3-3-3-3-3-|----|
|-3-3-3---------------------------|---------------------------------|----|


  S S S S S S S S  Q
|-0-0-0-3-3-3-3-3--3---|----*|
|-1-1-1-3-3-3-3-3--3---|----*|
|-0-0-0-0-0-0-0-0--0---|----*|
|-2-2-2-0-0-0-0-0--0---|----*|
|-3-3-3-2-2-2-2-2--2---|----*|
|-------3-3-3-3-3--3---|----*|



Duration Legend
---------------
W - whole; H - half; Q - quarter; E - 8th; S - 16th; T - 32nd; X - 64th; a - acciaccatura
+ - note tied to previous; . - note dotted; .. - note double dotted
Uncapitalized letters represent notes that are staccato (1/2 duration)
Irregular groupings are notated above the duration line
Duration letters will always appear directly above the note/fret number it represents the
duration for.  Duration letters with no fret number below them represent rests.  Multi-
bar rests are notated in the form Wxn, where n is the number of bars to rest for.  Low
melody durations appear below the staff

Tablature Legend
----------------
 h   - hammer-on
 p   - pull-off
 b   - bend
 pb  - pre-bend
 r   - bend release (if no number after the r, then release immediately)
 /  - slide into or out of (from/to nowhere)
 s   - legato slide
 S   - shift slide
 - natural harmonic
[n]  - artificial harmonic
n(n) - tapped harmonic
 ~   - vibrato
 tr  - trill
 T   - tap
 TP  - trem. picking
 PM  - palm muting
n/  - tremolo bar dip; n = amount to dip
 n  - tremolo bar down
 n/  - tremolo bar up
/n  - tremolo bar inverted dip
 =   - hold bend; also acts as connecting device for hammers/pulls
  - volume swell (louder/softer)
 x   - on rhythm slash represents muted slash
 o   - on rhythm slash represents single note slash

Misc Legend
-----------
 |  - bar
||  - double bar
||o - repeat start
o|| - repeat end
*|  - double bar (ending)
 :  - bar (freetime)
 $  - Segno
 amp;  - Coda
Tempo markers -  = BPM(8/16=s8/s16), where s8 = swing 8ths, s16 = swing 16ths



Добавлено: 21.08.2013
Вам также может быть интересно:
Другие материалы по этой песне:
  • Аккорды и текст

Страница создана 21.08.2013
http://primanota.ru/refreshments/wanted-acoustic-version-chords.htm
Привет, Гость.
Предлагаем пройти революционный курс по гитаре.
Подарок от PrimaNota.Ru, забирай!