PrimaNota.ru - самый крупный в мире бесплатный архив песенных текстов, аккордов, табулатур и нот


Reel Big Fish - Why do they rock so hard - таба, видео

Регистрация Запомнить меня
Войти через:  Facebook Google Twitter Vk Yandex Mail.ru

Reel Big Fish - Why do they rock so hard - таба, видео

Печатать
Просмотров: 122
Уроки эстрадного вокала в Санкт-Петербурге



From: crane 
Subject: r/reel_big_fish/why_do_they_rock_so_hard.tab
Date: Mon, 21 Dec 1998 22:03:24 -0500


Artist:     Reel Big Fish
Song:       Big Star
Album:      Why Do They Rock So Hard
Tabbed By:  BJ Crane

RBF is the best band in the world 
This song is pretty easy if a retard like me can tab it.  If
have any other Reel Big Fish tabs send them to:
				crane@cyberstreet.com
RBF Kicks @$$    

FIGURE #1
      C                 E        F 
e|----0---0-0---0-0-0--------------------|
B|----1---1-1---1-1-1--------------------|
G|----0---0-0---0-0-0--------------------|
D|----2---2-2---2-2-2---2--2-2---3--3-3--|
A|----3---3-3---3-3-3---2--2-2---3--3-3--|
E|----X---X-X---X-X-X---0--0-0---1--1-1--|

Now that i'm a big star, what am i gonna do...

FIGURE #2
      C                 E        F
e|---------0-----------------------------|
B|-------1-----1-------------------------|
G|---------------0-----------------------|
D|-----------------2----2--2-2---3--3-3--|
A|----3-----------------2--2-2---3--3-3--|
E|----------------------0--0-0---1--1-1--|

FIGURE #3
      C                 E         F
e|---------0------------------------------|
B|-------1-----1--------------------------|
G|---------------0------------------------|
D|-----------------2---------2---------3--|
A|----3------------------------2---------3|
E|----------------------0-0-------1-1-----|

FIGURE #4
     A             G              F
e|--------------------------------------|
B|--------------------------------------|
G|--------------------------------------|
D|---7-------------5--------------3-----|
A|---7-------------5--------------3-----|
E|---5-------------3--------------1-----|

    IF I CAN'T...  MAKE ...

FIGURE #5
     A     E    A    E    A    E    A
e|--------------------------------------|
B|--------------------------------------|
G|---3-3--------3-3-------3-3-------3-3-|
D|---3-3---3-3--3-3--3-3--3-3--3-3--3-3-|
A|---1-1---3-3--1-1--3-3--1-1--3-3--1-1-|
E|---------1-1-------1-1-------1-1------|
           
    I'm so cool, no one ...
    
FIGURE #6
      E       F       F#      G  
e|------------------------------------|
B|------------------------------------|
G|------------------------------------|
D|----2-2-2-2-3-3-3-3-4-4-4-4-5-5-5-5-|
A|----2-2-2-2-3-3-3-3-4-4-4-4-5-5-5-5-|
E|----0-0-0-0-1-1-1-1-2-2-2-2-3-3-3-3-|
      
     I'm a big f*ck.... 

Lyrics--

(Play Figure ONE twice)
(Paly Figure TWO)
Now that i'm a big star, what am i ....
(Play Figure THREE)
Its so easy, its so ....,
(Play Figure FOUR)
If i can't... make you... love me...

(There are two guitars here, but you can just play Figure ONE
     a couple of times and it sounds right.)

(Keep playing Figure ONE for the first couple verses)
I'm such an asshole, how could ....
(Play Figure FOUR)
If i can't... make you... love me...  but i know you do...

(Play Figure ONE about twice)

And i don't even have to try.....
(Play Figure FOUR w/ heavy distortion)
If i can't... make you... ....

(Play Figure FIVE once w/ heavy distortin w/out the words)
(Play Figure FIVE w/ heavy distortion)
I'm so cool, no one wants to .....

(Play Figure SIX w/ heavy distortion)
I'M A BIG F*CK*NG STAR, OH .....

I'M A BIG F*CK*NG STAR, OH ......

I'M A BIG (BIG) F*CK*NG STAR, .....
(Don't keep playing through the whole yeah)
EEEEEEEEEEEEEEAAAAAAAAAAAAAAAAAAHHHHHHHHHHHH 
All Right 


Добавлено: 06.12.2013
Другие материалы по этой песне:
  • Аккорды и текст

Страница создана 06.12.2013
http://primanota.ru/reel-big-fish/why-do-they-rock-so-hard-chords.htm
Привет, Гость.
Предлагаем пройти революционный курс по гитаре.
Подарок от PrimaNota.Ru, забирай!