PrimaNota.ru - самый крупный в мире бесплатный архив песенных текстов, аккордов, табулатур и нот


Reel Big Fish - Victory Over Peter Bones - таба, видео

Регистрация Запомнить меня
Войти через:  Facebook Google Twitter Vk Yandex Mail.ru

Reel Big Fish - Victory Over Peter Bones - таба, видео

Печатать
Просмотров: 94
-------------------------------------------------------------------------------
                             Victory Over Peter Bones - Reel Big Fish
-------------------------------------------------------------------------------
Tabbed by:Vtrillo627
Email:it_dies_today84@yahoo.com

Tuning:Standard



Intro:

e|--------------------------------------------------------------------------|
B|-----7--x-7--5----------7--x-7--5--5------7--x-7--5--4-4-4/7--x-7--5--5---|
G|-----6--x-6--4--4-------6--x-6--4---4-----6--x-6--4--5-5-5/6--x-6--4--4---|
D|-----7--x-7--5---5------7--x-7--5----5----7--x-7--5--4-4-4/7--x-7--5--5---|
A|---5-5--x-5--3----3-3/5-5--x-5--3-----3/5-5--x-5--3------3/5--x-5--3------|
E|--------------------------------------------------------------------------|



Verse 1: 

e|--------------------------|
B|-----7--x-7--5--4-4-4-----|
G|-----6--x-6--4--5-5-5-----| x12
D|-----7--x-7--5--4-4-4-----|
A|-3/5-5--x-5--3------3-----|
E|--------------------------|



Chorus:

e|---3--3-3--3--3-3---6--6-6--6--6-6-----|
B|---3--3-3--3--3-3---6--6-6--6--6-6-----|
G|---4--4-4--4--4-4---7--7-7--7--7-7-----|
D|---5--5-5--5--5-5---8--8-8--8--8-8-----|
A|---------------------------------------|
E|---------------------------------------|

e|--------------------------|
B|-----7--x-7--5--4-4-4-----|
G|-----6--x-6--4--5-5-5-----| x2
D|-----7--x-7--5--4-4-4-----|
A|-3/5-5--x-5--3------3-----|
E|--------------------------|

e|---3--3-3--3--3-3---6--6-6--6--6-6-----|
B|---3--3-3--3--3-3---6--6-6--6--6-6-----|
G|---4--4-4--4--4-4---7--7-7--7--7-7-----|
D|---5--5-5--5--5-5---8--8-8--8--8-8-----|
A|---------------------------------------|
E|---------------------------------------|



Guitar solo:

e|------------------------------------------------------------|
B|---7--7-7--7--7-7--7--------------8-----8b----10b---8-7-----|
G|--------------------7-6-5---5/7-------------------------7---|
D|---------------------------------9---9-8--------------------|
A|------------------------------------------------------------|
E|------------------------------------------------------------|

e|------------------------------------------------------------|
B|------------------------------------------------------------|
G|---7-9-7------7------7b-----------------------pick----------|
D|--------9-7-------------------7-7-7-----------slide---------|
A|-------------9---9-8----------5-5-5--2-3-4------------------|
E|-------------------------------------0-1-2------------------|

e|-----------------------------|
B|-----------------------------|
G|-----------------------------|
D|-----------------------------|
A|---5--5--5-5-5-4--3--2-------|
E|---3--3--3-3-3-2--1--0-------|


  
Bridge:

e|------2------3p2--2---------0-----3p0--0-----------------------------|
B|-----3--3--------3--3------3--3-2-------3----------------------------|
G|----2----2-----------2----2----2------2--2----0-------0--------------|
D|---0------0---------------------------------------------------0------|
A|-------------------------3-------------------2-----2-1-----0h2-2-----|
E|---------------------------------------------------------------------|



Verse 2:

e|--------------------------|
B|-----7--x-7--5--4-4-4-----|
G|-----6--x-6--4--5-5-5-----| x12
D|-----7--x-7--5--4-4-4-----|
A|---5-5--x-5--3------3-----|
E|--------------------------|



Chorus:

e|---3--3-3--3--3-3---6--6-6--6--6-6-----|
B|---3--3-3--3--3-3---6--6-6--6--6-6-----|
G|---4--4-4--4--4-4---7--7-7--7--7-7-----|
D|---5--5-5--5--5-5---8--8-8--8--8-8-----|
A|---------------------------------------|
E|---------------------------------------|

e|--------------------------|
B|-----7--x-7--5--4-4-4-----|
G|-----6--x-6--4--5-5-5-----| x2
D|-----7--x-7--5--4-4-4-----|
A|-3/5-5--x-5--3------3-----|
E|--------------------------|

e|---3--3-3--3--3-3---6--6-6--6--6-6-----|
B|---3--3-3--3--3-3---6--6-6--6--6-6-----|
G|---4--4-4--4--4-4---7--7-7--7--7-7-----|
D|---5--5-5--5--5-5---8--8-8--8--8-8-----|
A|---------------------------------------|
E|---------------------------------------|



Guitar solo:

Guitar 1
e|------------------------------------------------------------|
B|---7--7-7--7--7-7--7--------------8-----8b----10b---8-7-----|
G|--------------------7-6-5---5/7-------------------------7---|
D|---------------------------------9---9-8--------------------|
A|------------------------------------------------------------|
E|------------------------------------------------------------|

Guitar 2
e|---5--5-5--5--5-5--5--------------7-----7b----10b---7-5-----|
B|--------------------8-7-5---5/7-------------------------7---|
G|---------------------------------7---7-7--------------------|
D|------------------------------------------------------------|
A|------------------------------------------------------------|
E|------------------------------------------------------------|


Guitar 1
e|------------------------------------------------------------|
B|------------------------------------------------------------|
G|---7-9-7------7------7b-----------------------pick----------|
D|--------9-7-------------------7-7-7-----------slide---------|
A|-------------9---9-8----------5-5-5--2-3-4------------------|
E|-------------------------------------0-1-2------------------|

Guitar 2
e|---5-7-5------7-------10b-----------------------------------|
B|--------7-5--7---7-6----------------------------------------|
G|----------------------------------------------pick----------|
D|------------------------------7-7-7-----------slide---------|
A|------------------------------5-5-5--2-3-4------------------|
E|-------------------------------------0-1-2------------------|



Bridge:

e|------2------3p2--2---------0-----3p0--0-----------------------------|
B|-----3--3--------3--3------3--3-2-------3----------------------------|
G|----2----2-----------2----2----2------2--2----0-------0--------------|
D|---0------0---------------------------------------------------0------|
A|-------------------------3-------------------2-----2-1-----0h2-2-----|
E|---------------------------------------------------------------------|


Verse 3:

e|--------------------------|
B|-----7--x-7--5--4-4-4-----|
G|-----6--x-6--4--5-5-5-----| x16
D|-----7--x-7--5--4-4-4-----|
A|-3/5-5--x-5--3------3-----|
E|--------------------------|



| /  slide up
| \  slide down
| h  hammer-on
| p  pull-off
| ~  vibrato
| +  harmonic
| x  Mute note
===============================================================================
Добавлено: 07.05.2012
Другие материалы по этой песне:
  • Аккорды и текст

Страница создана 07.05.2012
http://primanota.ru/reel-big-fish/victory-over-peter-bones-chords.htm
Привет, Гость.
Предлагаем пройти революционный курс по гитаре.
Подарок от PrimaNota.Ru, забирай!