PrimaNota.ru - самый крупный в мире бесплатный архив песенных текстов, аккордов, табулатур и нот


Reel Big Fish - Unity - аккорды и текст, таба, бас-таба, видео

Регистрация Запомнить меня
Войти через:  Facebook Google Twitter Vk Yandex Mail.ru

Reel Big Fish - Unity - аккорды и текст, таба, бас-таба, видео

Печатать
Просмотров: 155
Unity
Reel Big Fish
Artist: Reel Big Fish
Song: Unity (Oporation Ivy Cover)
Tabbed By: Dan (Lamar148@aol.com)

  Hey, this is a really cool song, so I sugguest if you havent heard it,
download it! I am mainly a bass player, but I like this song and=20
couldn't find the tab anywhere, so here's my best shot, if you have any
corrections or comments email me at; Lamar148@aol.com.  Please do not=20
steal my work, thank you.

Intro: "There's a war goin down bewtween. . ."
E--5------5------7-----5-----5-----5-----7----5-5-5----
B--5------7------9-----7-----5-----7-----9----7-7-7----
G--6------7------9-----7-----6-----7-----9----7-7-7----
D--7------7------9-----7-----7-----7-----9----7-7-7----
A--7------5------7-----5-----7-----5-----7----5-5-5----
E--5-------------------------5-------------------------

Verse1 (fast ska upstrokes):=20
E--5-5-5-5--5/7--7/5-5----------------------------------
B--5-5-5-5--7/9--9/7-7----------------------------------
G--6-6-6-6--7/9--9/7-7----------------------------------
D--7-7-7-7--7/9--9/7-7----------------------------------
A--7-7-7-7--5/7--7/5-5----------------------------------
E--5-5-5-5----------------------------------------------

Verse2 (clean fast ska upstrokes): "Civilazation. . ."
E--5-5-5-5--5-5-5-5--7-7-7-7--5-5-5-5-------------------
B--5-5-5-5--7-7-7-7--9-9-9-9--7-7-7-7-------------------
G--6-6-6-6--7-7-7-7--9-9-9-9--7-7-7-7-------------------
D--7-7-7-7--7-7-7-7--9-9-9-9--7-7-7-7-------------------
A--7-7-7-7--5-5-5-5--7-7-7-7--5-5-5-5-------------------
E--5-5-5-5----------------------------------------------

Chorus (distorted): "Stop this, WAAAAAR."
E-------------------------------------------------------
B-------------------------------------------------------
G-------7-7--9-9--7-7-----------------------------------
D--7-7--7-7--9-9--7-7-----------------------------------
A--7-7--5-5--7-7--5-5-----------------------------------
E--5-5--------------------------------------------------

Little solo
E-------------------------------------------------------
B-------------------------------------------------------
G--6--6-7--7-9--9--7p6h7p6h7p6h7p6h7--(x2)--------------
D-------------------------------------------------------
A-------------------------------------------------------
E-------------------------------------------------------

Outro same as Chorus, end on;
E--5~---------------------------------------------------
B--5~---------------------------------------------------
G--6~---------------------------------------------------
D--7~---------------------------------------------------
A--7~---------------------------------------------------
E--5~---------------------------------------------------

There that was my best try at the song. Remember I'm just a bass player
so cut me some slack.  Verse 1 and 2 are very similar, I dont know why I
tabbed them separeatly, but I did, oh well, write me if u have anything
to say, Thanks.
     
Добавлено: 03.07.2013
Другие материалы по этой песне:
  • Аккорды и текст

Страница создана 06.07.2012
http://primanota.ru/reel-big-fish/unity-chords.htm
Привет, Гость.
Предлагаем пройти революционный курс по гитаре.
Подарок от PrimaNota.Ru, забирай!