PrimaNota.ru - самый крупный в мире бесплатный архив песенных текстов, аккордов, табулатур и нот


Reel Big Fish - So Much For Rock N Roll - таба, видео

Регистрация Запомнить меня
Войти через:  Facebook Google Twitter Vk Yandex Mail.ru

Reel Big Fish - So Much For Rock N Roll - таба, видео

Печатать
Просмотров: 97
Same as most ppl, song wasnt up here so gave it a crack, off their awesome live album.
reel tab (pun intended) but i think it sound alright, everythings there you just have to
a little imagination when to mute etc. Doing this has also made me realise just how much 
ppl put into these things and have the upmost repsect to all those heavy
Anyhows, leave comments or questions to cyclindan@hotmail.com. Enjoy!

Chords Used:
      G#    G    A#    D#    C    F
||----4-----3----6------6----8----1-------------------------------------------------------------------||
||----4-----3----6------8----8----1-------------------------------------------------------------------||
||----5-----4----7------8----9----2-------------------------------------------------------------------||
||----6-----5----8------8---10----3-------------------------------------------------------------------||
||----6-----5----8------6---10----3-------------------------------------------------------------------||
||----4-----3----6-----------8----1-------------------------------------------------------------------||

Intro: (Ska Upstrokes, listen for timing)

||-----6--x-x--6--------------------------6--x-x--6--------------------||
||-----6--x-x--6--------------------------6--x-x--6--------------------||
||-----7--x-x--7--------------------------7--x-x--7--------5^7-3h5p3---||
||-----8--x-x--8------5^7p4/8-------------8--x-x--8--------------------||
||-----8--x-x--8--------------------------8--x-x--8--------------------||
||-----6--x-x--6--------------------------6--x-x--6--------------------||

[1x]

||-6-6-6-6-6-6-6-6--------4-4-4-4--------8—8----6-6-----||
||-6-6-6-6-6-6-6-6--------4-4-4-4--------8—8----6-6-----||
||-7-7-7-7-7-7-7-7--------5-5-5-5--------9—9----7-7-----||
||-8-8-8-8-8-8-8-8--------6-6-6-6--------10-10--8-8-----||
||-8-8-8-8-8-8-8-8--------6-6-6-6--------10-10--8-8-----||
||-6-6-6-6-6-6-6-6--------4-4-4-4--------8—8—---6-6-----||

[2x] over horn solo

Verse1:

When I heard that song…..

||--------------------------------------------------------||
||--------------------------------------------------------||
||--------------------------------------------------------||
||-8-8-8-8-8-8-8-8--------6-6-6-6--------10-10--8-8-------||
||-8-8-8-8-8-8-8-8--------6-6-6-6--------10-10--8-8-------||
||-6-6-6-6-6-6-6-6--------4-4-4-4---------8—8—--6-6-------||
   {------p.m---------------------------------------------||

[4x]


Bridge: (listen for the palm mutes etc, its straight forward)

||--4-4-4-4---6-6-6-6--||
||--4-4-4-4---6-6-6-6--||
||--5-5-5-5---7-7-7-7--||
||--6-6-6-6---8-8-8-8--||
||--6-6-6-6---8-8-8-8--||
||--4-4-4-4---6-6-6-6--||

[2x]

You said fuck off….
||--4-4-4-4-4-4-4-4----6-6-6-6-6-6-6-6--||
||--4-4-4-4-4-4-4-4----6-6-6-6-6-6-6-6--||
||--5-5-5-5-5-5-5-5----7-7-7-7-7-7-7-7--||
||--6-6-6-6-6-6-6-6----8-8-8-8-8-8-8-8--||
||--6-6-6-6-6-6-6-6----8-8-8-8-8-8-8-8--||
||--4-4-4-4-4-4-4-4----6-6-6-6-6-6-6-6--||

Chorus: (half time)
||--x-6-x-6----x-8--x--8----x-4-x-4----x-6-x-6-----||
||--x-8-x-8----x-8--x--8----x-4-x-4----x-6-x-6-----||
||--x-8-x-8----x-9--x--9----x-5-x-5----x-7-x-7-----||
||--x-8-x-8----x-10-x-10----x-6-x-6----x-8-x-8-----||
||--x-6-x-6----x-10-x-10----x-6-x-6----x-8-x-8-----||
||-------------x-8--x--8----x-4-x-4----x-6-x-6-----||
[2x]

||--x-6-x-6----x-8--x--8---x-4-x-4------4-3-1-1/4--||
||--x-8-x-8----x-8--x--8---x-4-x-4------4-3-1-1/4--||
||--x-8-x-8----x-9--x--9---x-5-x-5------5-4-2-2/5--||
||--x-8-x-8----x-10-x-10---x-6-x-6------6-5-3-3/6--||
||--x-6-x-6----x-10-x-10---x-6-x-6------6-5-3-3/6--||
||-------------x-8--x--8---x-4-x-4------4-3-1-1/4--||
                                       (Distorted)

Verse intro:
||-6-6-6-6-6-6-6-6--------4-4-4-4--------8—8----6-6-----||
||-6-6-6-6-6-6-6-6--------4-4-4-4--------8—8----6-6-----||
||-7-7-7-7-7-7-7-7--------5-5-5-5--------9—9----7-7-----||
||-8-8-8-8-8-8-8-8--------6-6-6-6--------10-10--8-8-----||
||-8-8-8-8-8-8-8-8--------6-6-6-6--------10-10--8-8-----||
||-6-6-6-6-6-6-6-6--------4-4-4-4--------8—8—---6-6-----||

[2x] over horn solo

Verse2:

Well maybe you had an excuse….
||--------------------------------------------------------||
||--------------------------------------------------------||
||--------------------------------------------------------||
||-8-8-8-8-8-8-8-8--------6-6-6-6--------10-10--8-8-------||
||-8-8-8-8-8-8-8-8--------6-6-6-6--------10-10--8-8-------||
||-6-6-6-6-6-6-6-6--------4-4-4-4---------8—8--—6-6-------||
   {------p.m-----)

[4x]

Bridge:
||--4-4-4-4---6-6-6-6--||
||--4-4-4-4---6-6-6-6--||
||--5-5-5-5---7-7-7-7--||
||--6-6-6-6---8-8-8-8--||
||--6-6-6-6---8-8-8-8--||
||--4-4-4-4---6-6-6-6--||

[2x]

You said fuck off….
||--4-4-4-4-4-4-4-4----6-6-6-6-6-6-6-6--||
||--4-4-4-4-4-4-4-4----6-6-6-6-6-6-6-6--||
||--5-5-5-5-5-5-5-5----7-7-7-7-7-7-7-7--||
||--6-6-6-6-6-6-6-6----8-8-8-8-8-8-8-8--||
||--6-6-6-6-6-6-6-6----8-8-8-8-8-8-8-8--||
||--4-4-4-4-4-4-4-4----6-6-6-6-6-6-6-6--||

Chorus: (half time)
||--x-6-x-6----x-8--x--8----x-4-x-4----x-6-x-6-----||
||--x-8-x-8----x-8--x--8----x-4-x-4----x-6-x-6-----||
||--x-8-x-8----x-9--x--9----x-5-x-5----x-7-x-7-----||
||--x-8-x-8----x-10-x-10---x-6-x-6----x-8-x-8------||
||--x-6-x-6----x-10-x-10---x-6-x-6----x-8-x-8------||
||-------------x-8--x--8----x-4-x-4----x-6-x-6-----||
[2x]

||--x-6-x-6----x-8--x--8---x-4-x-4------4-3-1-1/4--||
||--x-8-x-8----x-8--x--8---x-4-x-4------4-3-1-1/4--||
||--x-8-x-8----x-9--x--9---x-5-x-5------5-4-2-2/5--||
||--x-8-x-8----x-10-x-10---x-6-x-6------6-5-3-3/6--||
||--x-6-x-6----x-10-x-10---x-6-x-6------6-5-3-3/6--||
||-------------x-8--x--8---x-4-x-4------4-3-1-1/4--||
                                       (Distorted)
Middle 8 intro:
||-----6--x-x--6--------------------------6--x-x--6-------------------||
||-----6--x-x--6--------------------------6--x-x--6-------------------||
||-----7--x-x--7--------------------------7--x-x--7--------5^7-3h5p3--||
||-----8--x-x--8------5^7p4/8-------------8--x-x--8-------------------||
||-----8--x-x--8--------------------------8--x-x--8-------------------||
||-----6--x-x--6--------------------------6--x-x--6-------------------||
[2x]

Middle 8:
||--6-6-6\---4-4-4\-----||
||--8-8-8\---4-4-4\-----||
||--8-8-8\---5-5-5\-----||
||--8-8-8\---6-6-6\-----||
||--6-6-6\---6-6-6\-----||
||-----------4-4-4\-----||
    (pm)        (pm)

Bridge:
||--4-4-4-4---6-6-6-6--||
||--4-4-4-4---6-6-6-6--||
||--5-5-5-5---7-7-7-7--||
||--6-6-6-6---8-8-8-8--||
||--6-6-6-6---8-8-8-8--||
||--4-4-4-4---6-6-6-6--||

[2x]

You said fuck off….
||--4-4-4-4-4-4-4-4----6-6-6-6-6-6-6-6--||
||--4-4-4-4-4-4-4-4----6-6-6-6-6-6-6-6--||
||--5-5-5-5-5-5-5-5----7-7-7-7-7-7-7-7--||
||--6-6-6-6-6-6-6-6----8-8-8-8-8-8-8-8--||
||--6-6-6-6-6-6-6-6----8-8-8-8-8-8-8-8--||
||--4-4-4-4-4-4-4-4----6-6-6-6-6-6-6-6--||

Chorus: (half time)
||--x-6-x-6----x-8--x--8---x-4-x-4----x-6-x-6-----||
||--x-8-x-8----x-8--x--8---x-4-x-4----x-6-x-6-----||
||--x-8-x-8----x-9--x--9---x-5-x-5----x-7-x-7-----||
||--x-8-x-8----x-10-x-10---x-6-x-6----x-8-x-8-----||
||--x-6-x-6----x-10-x-10---x-6-x-6----x-8-x-8-----||
||-------------x-8--x--8---x-4-x-4----x-6-x-6-----||
[2x]

||--x-6-x-6----x-8--x--8---x-4-x-4------4-3-1-1/4--||
||--x-8-x-8----x-8--x--8---x-4-x-4------4-3-1-1/4--||
||--x-8-x-8----x-9--x--9---x-5-x-5------5-4-2-2/5--||
||--x-8-x-8----x-10-x-10---x-6-x-6------6-5-3-3/6--||
||--x-6-x-6----x-10-x-10---x-6-x-6------6-5-3-3/6--||
||-------------x-8--x--8---x-4-x-4------4-3-1-1/4--||
                                       (Distorted)
[repeat chorus twice, 2nd time use power chords at normal time, you will know what I
when you listen to the song]

Outro:

||--4-4-4-4---6-6-6-6--||
||--4-4-4-4---6-6-6-6--||
||--5-5-5-5---7-7-7-7--||
||--6-6-6-6---8-8-8-8--||
||--6-6-6-6---8-8-8-8--||
||--4-4-4-4---6-6-6-6--||

[3x]

End on:
-4-
-6-
-6-
-6-
-4-

Lyrics:

When I heard that song it touched me deep inside
When I saw the video, man I almost cried
You put my feelings into words, the most beautiful thing I've ever heard
I've got a record and a ticket to the show

I was a fan
Didn't understand
You said fuck off
You wouldn't shake my hand

You are such an asshole [x3]
So much for rock and roll

Well maybe you had an excuse for being rude
Everybody gets in a bad mood
But then your limo pulled up next to me
My girlfriend got inside to stay
Now I'm all alone and she's with you

Who do you think you are
A big fuckin' star?
You were stuck in my head
Then you broke my heart

You are such an asshole[x3]
So much for rock and roll

[everybody jump]

You rocked my world
You took my girl
Who do you think you are?
Big fuckin' star

I was a fan
Didn't understand
You said fuck off(fuck off!)
You wouldn't shake my hand

You are such an asshole
You are such an asshole
You are a fucking asshole

So much for rock and roll

You are such an asshole[x3]

So much for rock, so much for rock, so much for rock and roll
Добавлено: 27.02.2012
Другие материалы по этой песне:
  • Аккорды и текст

Страница создана 27.02.2012
http://primanota.ru/reel-big-fish/so-much-for-rock-n-roll-chords.htm
Привет, Гость.
Предлагаем пройти революционный курс по гитаре.
Подарок от PrimaNota.Ru, забирай!