PrimaNota.ru - самый крупный в мире бесплатный архив песенных текстов, аккордов, табулатур и нот


Reel Big Fish - Punisher - таба, видео

Регистрация Запомнить меня
Войти через:  Facebook Google Twitter Vk Yandex Mail.ru

Reel Big Fish - Punisher - таба, видео

Печатать
Просмотров: 86
Уроки эстрадного вокала в Санкт-Петербурге
Авторы: Aaron Barrett

INTRO (distortion)

E|-----------------------------------------------------|
B|-----------------------------------------------------|
G|-----------------------------------------------------|
D|---5----------7----------8----------10---------------|
A|---5----------7----------8----------10---------------|
E|---3----------5----------6----------8----------------|

E|-----------------------------------------------------| use wah
B|-----------------------------------------------------|
G|-----------------------------------------------------|
D|---5----------7----------8---------------------------|
A|---5----------7----------8---------------------------|
E|---3----------5----------6-----------0/11~-10~-------|

PRE-VERSE (ska strumming)
                       (3x)                         (1x)
E|------------6------------|-------------6-------------| play whole measure
B|---10-------6------------|----8--------6-------------| twice
G|---10-------7------------|----8--------7-------------|
D|---10-------8------------|----8--------8-------------|
A|---8--------8------------|----6--------8-------------|
E|------------6------------|-------------6-------------|

VERSE
                       (3x)                         (1x)
E|---6------8--------------|----5----------------------| play whole measure
B|---6------8-------10-----|----6--------8-------------| twice
G|---7------9-------10-----|----7--------8-------------|
D|---8------10------10-----|----7--------8-------------|
A|---8------10------8------|----5--------6-------------|
E|---6------8--------------|---------------------------|

                       (2x)                 (distortion)
E|---5---------------------|---------------------------|
B|---6------8-------10-----|---------------------------|
G|---7------8-------10-----|---------------------------|
D|---7------8-------10-----|----7-----8-----10-x-x-x---|
A|---5------6-------8------|----7-----8-----10-x-x-x---|
E|-------------------------|----5-----6-----8--x-x-x---|


CHORUS (distortion)
                                                    (4x)
E|-------------------------5---------------------------|
B|-------------------------6---------------------------|
G|-------------------------7---------------------------|
D|---3----------3----------7----------5----------------|
A|---3----------1----------5----------3----------------|
E|---1-------------------------------------------------|

E|-----------------------------------------------------| use wah
B|-----------------------------------------------------|
G|-----------------------------------------------------|
D|---5----------7----------8---------------------------|
A|---5----------7----------8---------------------------|
E|---3----------5----------6-----------0/12~-11~-------|


SAX SOLO!! Matt Appleton is a boss!!

                        (3x)                        (1x)
E|------------6------------|-------------6-------------|
B|---10-------6------------|----8--------6-------------|
G|---10-------7------------|----8--------7-------------|
D|---10-------8------------|----8--------8-------------|
A|---8--------8------------|----6--------8-------------|
E|------------6------------|-------------6-------------|


VERSE 2
                       (3x)                         (1x)
E|---6------8--------------|----5----------------------| play whole measure
B|---6------8-------10-----|----6--------8-------------| twice
G|---7------9-------10-----|----7--------8-------------|
D|---8------10------10-----|----7--------8-------------|
A|---8------10------8------|----5--------6-------------|
E|---6------8--------------|---------------------------|

                       (2x)                 (distortion)
E|---5---------------------|---------------------------|
B|---6------8-------10-----|---------------------------|
G|---7------8-------10-----|---------------------------|
D|---7------8-------10-----|----7-----8-----10-x-x-x---|
A|---5------6-------8------|----7-----8-----10-x-x-x---|
E|-------------------------|----5-----6-----8--x-x-x---|

CHORUS 2 (distortion)
                                                    (4x)
E|-------------------------5---------------------------|
B|-------------------------6---------------------------|
G|-------------------------7---------------------------|
D|---3----------3----------7----------5----------------|
A|---3----------1----------5----------3----------------|
E|---1-------------------------------------------------|

E|-----------------------------------------------------| use wah
B|-----------------------------------------------------|
G|-----------------------------------------------------|
D|---5----------7----------8---------------------------|
A|---5----------7----------8---------------------------|
E|---3----------5----------6-----------0/11~-10~-------|


INTERLUDE
                                     (8x)
E|--------------------------------------|---------------| palm mute and
B|--------------------------------------|---------------| ring out notes
G|--------------------------------------|---------------| when needed
D|-------3--------------8----------7----|---------------|
A|-------3----------6-6-6------5-5-5----|---------------|
E|---1-1-1------------------------------|----0/11~-10~--|


                        (3x)                        (1x)
E|------------6------------|-------------6-----------------| play whole measure
B|---10-------6------------|----8--------6-----------------| twice. first time
G|---10-------7------------|----8--------7-----------------| use distortion the
D|---10-------8------------|----8--------8-----------------| second do your
A|---8--------8------------|----6--------8-----------------| ska strum.
E|------------6------------|-------------6-----------------|


PRE-CHORUS
                       (2x)                 (distortion)
E|---5---------------------|---------------------------|
B|---6------8-------10-----|---------------------------|
G|---7------8-------10-----|---------------------------|
D|---7------8-------10-----|----7-----8-----10---------|
A|---5------6-------8------|----7-----8-----10---------|
E|-------------------------|----5-----6-----8----------|


CHORUS 3 (clean 2x) then (distortion 3x)

E|-------------------------5---------------------------|
B|-------------------------6---------------------------|
G|-------------------------7---------------------------|
D|---3----------3----------7----------5----------------|
A|---3----------1----------5----------3----------------|
E|---1-------------------------------------------------|

E|-----------------------------------------------------| use wah
B|-----------------------------------------------------|
G|-----------------------------------------------------|
D|---5----------7----------8---------------------------|
A|---5----------7----------8---------------------------|
E|---3----------5----------6-----------0/11~-10~-------|

                                                    (4x)
E|-----------------------------------------------------| palm mute and
B|-----------------------------------------------------| ring out notes
G|-----------------------------------------------------| when needed
D|-------3--------------8----------7-------------------|
A|-------3----------6-6-6------5-5-5-------------------|
E|---1-1-1---------------------------------------------|


I'm not putting up the solo because I don't know how to play it so just improvise like me.
I do know he plays the first part of the solo on the 12th fret of the B string and the
second part on the 15th - 17th frets on both the B and high E strings.........give it a 
shot!! This song is really fun to play. I didn't actually put how many times you should
play each chord in my tab but you can figure that out. Aaron Barrett is a badass!!! Reel 
Big Fish!!! only my second tab so go easy on me.
Добавлено: 28.11.2013
Другие материалы по этой песне:
  • Аккорды и текст

Страница создана 28.11.2013
http://primanota.ru/reel-big-fish/punisher-chords.htm
Привет, Гость.
Предлагаем пройти революционный курс по гитаре.
Подарок от PrimaNota.Ru, забирай!