PrimaNota.ru - самый крупный в мире бесплатный архив песенных текстов, аккордов, табулатур и нот


Reel Big Fish - Ps I Hate You - таба, видео

Регистрация Запомнить меня
Войти через:  Facebook Google Twitter Vk Yandex Mail.ru

Reel Big Fish - Ps I Hate You - таба, видео

Печатать
Просмотров: 106
Авторы: John Christianson, Aaron Barrett

Legend:

*=Palm mute
h=Hammer on to
p=Pull off to
x=Mute

Intro (distorted)(x6):

--------------------------------------|
--------------------------------------|
------4---4h5p4-----------------------|
--------5-------7p5-----5-------7-----|
--5-5---------------3-3---3/5-5---5---|
--3-3---------------------------------|

then:


-------------------------------------|
-------------------------------------|
--5-----7------5555-9-777------------|
--x(x4)-x(x4)--xxxx-x-xxx------------|
--3-----5------3555-7-555------------|
-------------------------------------|

Cue the ska!(remember your upstrokes and muting on the down beat)
(I play 5 note chords when there's an E-Shape barre and 4 notes on A-shapes
but just play whatever's comfortable.  I threw the chord names in where I could)

Horn line(Clean)

--3-----------------------------------|
--3------5--7-------------------------|
--4------5--7-------------------------|
--5-(x6) 5--7-------------------------|
--5------3--5-------------------------|
--------------------------------------|


Last time:

  C      D        C    E D
----------------------------------------|
--5------7-------(distorted)------------|
--5------7--------5555-9-777------------|
--5-(x4)-7-(x4) --xxxx-x-xxx------------|
--3------5--------3333-7-555------------|
----------------------------------------|



Verse: (same as horn line)

  G      C  D
--3-----------------------------------|
--3------5--7-------------------------|
--4------5--7-------------------------|
--5-(x6) 5--7-------------------------|
--5------3--5-------------------------|
--------------------------------------|


Then:

  C      D        C    E D
----------------------------------------|
--5------7------------------------------|
--5------7--------5555-9-777------------|
--5-(x4)-7-(x4) --xxxx-x-xxx------------|
--3------5--------3333-7-555------------|
----------------------------------------|

Chorus time!(Distorted)

  G       C      A        D
----------------------------------------|
----------------------------------------|
----------------------------------------|
----------55-5~-----------77-7~---------|
--55-5~---33-3~--77-7~----55-5~---------|
--33-3~----------55-5~------------------|
  **      **     **       **

Hornline

Verse

Chorus

Intro(in case you forgot)(x4):


--------------------------------------|
--------------------------------------|
------4---4h5p4-----------------------|
--------5-------7p5-----5-------7-----|
--5-5---------------3-3---3/5-5---5---|
--3-3---------------------------------|

Trumpet solo:

--------------------------------------|
--------------------------------------|
--------------------------------------|
----------5(x4)-7(x4)-----------------|
--5(x8)---3-----5---------------------|
--3-----------------------------------|

Bridge 1:

--------------------------------------|
--------------------------------------|
--------------------------------------|
--5-555-5-555--3-777-7-777------------|
--3-333-3-333--5-555-5-555------------|
--------------------------------------|
    *     *      *     *

--------------------------------------|
--------------------------------------|
--------------------------------------|
--------------------5(x8)---7(x8)-----|
--5(x8)---2(x8)-----3-------5---------|
--3-------0---------------------------|
(Now you're on your own...)

--------------------------------------|
--------------------------------------|
--------------------------------------|
--5-555-5-555--3-777-7-777------------|
--3-333-3-333--5-555-5-555------------|
--------------------------------------|
    *     *      *     *

--------------------------------------|
--------------------------------------|
--------------------------------------|
--------------------5(x8)---7(x8)-----|
--5(x8)---2(x8)-----3-------5---------|
--3-------0---------------------------|

Then play:
----------------------------------------|
--5------7-------(distorted)------------|
--5------7--------5555-9-777------------|
--5-(x4)-7-(x4) --xxxx-x-xxx------------|
--3------5--------3333-7-555------------|
----------------------------------------|



Horn line again!

Then

Bridge 2:

(Slow ska upstrokes)

---3-------5-----------------------------|
---3---5---5---7-------------------------|
---4---5---5---7-------------------------|
---5---5---7---7---------(x2)------------|
---5---3---7---5-------------------------|
-----------------------------------------|
   G   C   Am  D
Last Chorus:
(Hooray for key changes!)

-------------------------------------------|
-------------------------------------------|
-------------------------------------------|
----------7(x8)---------9(x8)--------------|
---7(x8)--5------9(x8)--7------------------|
---5-------------7-------------------------|
   A      D      B      E

------------------------|
------------------------|
------------------------|
--9-----------------9---|
--7-----------------7---|
------------------------|
(PS I hate you, PS I hate you)

Finally:

-------------------------------------------|
-------------------------------------------|
-------------------------------------------|
-----------9-------------------------------|
---7-------7(x16)-----------7~-------------|
---5(x16)-------------------5~-------------|

And you're done!  If you have any questions feel free to email me at 
seviper1@sbcglobal.net.  Thanks!
Добавлено: 27.10.2013
Другие материалы по этой песне:
  • Аккорды и текст

Страница создана 27.10.2013
http://primanota.ru/reel-big-fish/ps-i-hate-you-chords.htm
Привет, Гость.
Предлагаем пройти революционный курс по гитаре.
Подарок от PrimaNota.Ru, забирай!