PrimaNota.ru - самый крупный в мире бесплатный архив песенных текстов, аккордов, табулатур и нот


Reel Big Fish - Off - аккорды и текст, видео

Регистрация Запомнить меня
Войти через:  Facebook Google Twitter Vk Yandex Mail.ru

Reel Big Fish - Off - аккорды и текст, видео

Печатать
Просмотров: 97
Уроки эстрадного вокала в Санкт-Петербурге
Off
Reel Big Fish
[Reel Big Fish]
[Off]
[Tabbed by Neil Allen:P]
[www.wipey.cjb.net]

Um I really like the crappy sound on this song...
I haven't tabbed the time signatures cos they're a pain and
you should be able to figure it out by listening to the song,
and the same with the chords.
I tried to get the bars right, but as I say, I'm not mozart

Regular tuning

   [intro]
=|-------------------|-------------------|
=|-------------------|-------------------|
T|-------------------|-------------------|
A|-------------------|-------------------|
B|-------------------|-------------5-8-5-|
=|---5-8-6-6-6-5---5-|---5-8-6-6-6-------|
=|-6-------------8---|-6-----------------|

=|-------------------|----------------|
=|-------------------|----------------|
T|-------------------|----------------|
A|-------------------|----------------|
B|-------------------|-----7-10-8-7-8-|
=|---5-8-6-6-6-5---5-|-8-8------------|
=|-6-------------8---|----------------|

   [fill]
=|---------------------|---------------------|
=|---------------------|---------------------|
T|---------------------|---------------------|
A|-----------8-=strum=-|-----------8-=strum=-|
B|-8-=strum=-8-=strum=-|-8-=strum=-8-=strum=-|
=|-8-=strum=-6-=strum=-|-8-=strum=-6-=strum=-|
=|-6-=strum=-----------|-6-=strum=-----------|

=|---------------------|---------------------|
=|---------------------|---------------------|
T|---------------------|---------------------|
A|-----------8-=strum=-|-----------8-=strum=-|
B|-8-=strum=-8-=strum=-|-3-=strum=-8-=strum=-|
=|-8-=strum=-6-=strum=-|-3-=strum=-6-=strum=-|
=|-6-=strum=-----------|-1-=strum=-----------|

=|---------------------|---------------------|
=|---------------------|---------------------|
T|---------------------|---------------------|
A|-----------8-=strum=-|-----------8-=strum=-|
B|-8-=strum=-8-=strum=-|-8-=strum=-8-=strum=-|
=|-8-=strum=-6-=strum=-|-8-=strum=-6-=strum=-|
=|-6-=strum=-----------|-6-=strum=-----------|

=|---------------------|--------|
=|---------------------|--------|
T|---------------------|--------|
A|-----------8-=strum=-|--------|
B|-8-=strum=-8-=strum=-|--------|
=|-8-=strum=-6-=strum=-|---0-3~-|
=|-6-=strum=-----------|-1------|

   [verse]
=|----------|--------|
=|----------|--------|
T|----------|--------|
A|-8-=hold=-|-=hold=-|
B|-8-=hold=-|-=hold=-|
=|-6-=hold=-|-=hold=-|
=|----------|--------|
   "know am cool when all the guys..."

=|---------------------|---------------------|
=|---------------------|---------------------|
T|---------------------|---------------------|
A|-----------8-=strum=-|-----------8-=strum=-|
B|-8-=strum=-8-=strum=-|-8-=strum=-8-=strum=-|
=|-8-=strum=-6-=strum=-|-8-=strum=-6-=strum=-|
=|-6-=strum=-----------|-6-=strum=-----------|

=|----------|--------|
=|----------|--------|
T|----------|--------|
A|-8-=hold=-|-=hold=-|
B|-8-=hold=-|-=hold=-|
=|-6-=hold=-|-=hold=-|
=|----------|--------|
   "and every little girl here..."

=|---------------------|---------------------|
=|---------------------|---------------------|
T|---------------------|---------------------|
A|-----------8-=strum=-|-----------8-=strum=-|
B|-8-=strum=-8-=strum=-|-8-=strum=-8-=strum=-|
=|-8-=strum=-6-=strum=-|-8-=strum=-6-=strum=-|
=|-6-=strum=-----------|-6-=strum=-----------|

   [chorus]
=|-----------------------|-----------|
=|-----------------------|-----------|
T|-----------------------|-----------|
A|-----------------------|-----------|
B|-3-=strum=-7-=strum=-8-|-----------|
=|-3-=strum=-7-=strum=-8-|-5-5-6-6-8-|
=|-1-=strum=-5-=strum=-6-|-----------|
   "but I stole all of my songs"

=|-----------------------|-----------|
=|-----------------------|-----------|
T|-----------------------|-----------|
A|-----------------------|-----------|
B|-3-=strum=-7-=strum=-8-|-----------|
=|-3-=strum=-7-=strum=-8-|-5-5-6-6-8-|
=|-1-=strum=-5-=strum=-6-|-----------|
   "probly gonna get sued"

=|-----------|-----|
=|-----------|-----|
T|-----------|-----|
A|-8-=strum=-|-----|
B|-8-=strum=-|-3-3-|
=|-6-=strum=-|-3-3-|
=|-----------|-1-1-|
   "that's alright..."

   [fill]
=|---------------------|---------------------|
=|---------------------|---------------------|
T|---------------------|---------------------|
A|-----------8-=strum=-|-----------8-=strum=-|
B|-8-=strum=-8-=strum=-|-8-=strum=-8-=strum=-|
=|-8-=strum=-6-=strum=-|-8-=strum=-6-=strum=-|
=|-6-=strum=-----------|-6-=strum=-----------|
   "SCREWED!"            "yeah yeah yeah"

=|---------------------|---------------------|
=|---------------------|---------------------|
T|---------------------|---------------------|
A|-----------8-=strum=-|-----------8-=strum=-|
B|-8-=strum=-8-=strum=-|-3-=strum=-8-=strum=-|
=|-8-=strum=-6-=strum=-|-3-=strum=-6-=strum=-|
=|-6-=strum=-----------|-1-=strum=-----------|
   "yeah yeah yeah"      "yeah yeah yeah!"

=|---------------------|---------------------|
=|---------------------|---------------------|
T|---------------------|---------------------|
A|-----------8-=strum=-|-----------8-=strum=-|
B|-8-=strum=-8-=strum=-|-8-=strum=-8-=strum=-|
=|-8-=strum=-6-=strum=-|-8-=strum=-6-=strum=-|
=|-6-=strum=-----------|-6-=strum=-----------|
   "yeah yeah yeah"      "yeah yeah yeah"

=|---------------------|--------|
=|---------------------|--------|
T|---------------------|--------|
A|-----------8-=strum=-|--------|
B|-8-=strum=-8-=strum=-|--------|
=|-8-=strum=-6-=strum=-|---0-3~-|
=|-6-=strum=-----------|-1------|
   "yeah yeah yeah"      "awh..."

   [verse]
=|----------|--------|
=|----------|--------|
T|----------|--------|
A|-8-=hold=-|-=hold=-|
B|-8-=hold=-|-=hold=-|
=|-6-=hold=-|-=hold=-|
=|----------|--------|
   "maybe you'll come..."

=|---------------------|---------------------|
=|---------------------|---------------------|
T|---------------------|---------------------|
A|-----------8-=strum=-|-----------8-=strum=-|
B|-8-=strum=-8-=strum=-|-8-=strum=-8-=strum=-|
=|-8-=strum=-6-=strum=-|-8-=strum=-6-=strum=-|
=|-6-=strum=-----------|-6-=strum=-----------|

=|----------|--------|
=|----------|--------|
T|----------|--------|
A|-8-=hold=-|-=hold=-|
B|-8-=hold=-|-=hold=-|
=|-6-=hold=-|-=hold=-|
=|----------|--------|
   "maybe you'll come..."

=|---------------------|---------------------|
=|---------------------|---------------------|
T|---------------------|---------------------|
A|-----------8-=strum=-|-----------8-=strum=-|
B|-8-=strum=-8-=strum=-|-8-=strum=-8-=strum=-|
=|-8-=strum=-6-=strum=-|-8-=strum=-6-=strum=-|
=|-6-=strum=-----------|-6-=strum=-----------|

   [chorus]
=|-----------------------|-----------|
=|-----------------------|-----------|
T|-----------------------|-----------|
A|-----------------------|-----------|
B|-3-=strum=-7-=strum=-8-|-----------|
=|-3-=strum=-7-=strum=-8-|-5-5-6-6-8-|
=|-1-=strum=-5-=strum=-6-|-----------|
   "cos there's so many fish..."

=|-----------------------|-----------|
=|-----------------------|-----------|
T|-----------------------|-----------|
A|-----------------------|-----------|
B|-3-=strum=-7-=strum=-8-|-----------|
=|-3-=strum=-7-=strum=-8-|-5-5-6-6-8-|
=|-1-=strum=-5-=strum=-6-|-----------|
   "they all look like..."

=|-----------|-----|
=|-----------|-----|
T|-----------|-----|
A|-8-=strum=-|-----|
B|-8-=strum=-|-3-3-|
=|-6-=strum=-|-3-3-|
=|-----------|-1-1-|
   "I'm just a lil tiny fish..."

=|----------|--------|
=|----------|--------|
T|----------|--------|
A|----------|--------|
B|-8-=hold=-|-=hold=-|
=|-8-=hold=-|-=hold=-|
=|-6-=hold=-|-=hold=-|

-==http://www.wipey.cjb.net==-
     
Добавлено: 17.11.2013
Другие материалы по этой песне:
  • Аккорды и текст

Страница создана 17.11.2013
http://primanota.ru/reel-big-fish/off-chords.htm
Привет, Гость.
Предлагаем пройти революционный курс по гитаре.
Подарок от PrimaNota.Ru, забирай!