PrimaNota.ru - самый крупный в мире бесплатный архив песенных текстов, аккордов, табулатур и нот


Reel Big Fish - Nothin' - аккорды и текст, бас-таба, видео

Регистрация Запомнить меня
Войти через:  Facebook Google Twitter Vk Yandex Mail.ru

Reel Big Fish - Nothin' - аккорды и текст, бас-таба, видео

Печатать
Просмотров: 96
Авторы музыки: Aaron Barrett
Авторы текста: Aaron Barrett
Nothin'
Reel Big Fish
chord chart
    c  f  g  e  c1  f1  a
[e:--3--1--3--7--8---8---5-
b:--5--1--3--9--8---10--7-
g:--5--2--4--9--9---10--7-
d:--5--3--5--9--10--10--7-
a:--3--3--5--7--10--8---5-
e:-----1--3-----8---------]
 
Intro:		c1 e

c                         e f      a g
     everytime i try so hard i get nothin' (nothin')
c                   e f      a g
they say try and you won't fail i get nothin' (nothin')
c                   e f      a g
i did all that i could i got nothin' (nothin')
c          e f      a g
i tried so hard for nothin' (nothin')
a   c f g               a   c f g
          i never wanted it that way
                      a    c f g
guess there was nothin' i could say
                      a      c     f    g
i don't know what i want but i know i don't want this
f            g              f     g
i give up i give in i know i'm never gonna win
c                    e f      a g
everytime i try so hard i get nothin' (nothin')
c                   e f      a g
they say try and you won't fail i get nothin' (nothin')
c                   e f      a g
i did all that i could i got nothin' (nothin')
c          e f      a g
i tried so hard for nothin' (nothin')
a   c f g                    a     c f g
          i know it's really not your fault
           a      c f g
i'm gonna blame you anyway
                  a             c  f  g
you say you're sorry but i know it won't Do no good
f            g              f     g
i give up i give in i know i'm never gonna win
c                    e f      a g
everytime i try so hard i get nothin' (nothin')
c                   e f      a g
they say try and you won't fail i get nothin' (nothin')
c                   e f      a g
i did all that i could i got nothin' (nothin')
c          e f      a g
i tried so hard for nothin' (nothin')

solo:		[e:--------------------------------------------
b:----------1---------------------------------
g:--3-3-2-3---3-2-1s2-0----------0------------
d:-----------------------3-3-2-3---3-2--------
a:-------------------------------------3s5----
e:-----------------------------------------3--

e:---------------------------------------------
b:-----------1---------------------------------
g:---3-3-2-3---3-2-1s2-0----------0------------
d:------------------------3-3-2-3---3-2--------
a:--------------------------------------3s5-3--
e:---------------------------------------------

e:---------------------------------------------
b:---------------------------------------------
g:---3p2---3p2---3s5-5-------------------------
d:-------3-----3-------3-3-5-------------------
a:---------------------------------------------
e:---------------------------------------------]

post-solo: c f c g (one measure each chord)
               f g (two downstrokes on f and then one on g)

c
i don't fuckin' care
f
i don't fuckin' care
c              g    harmonic fill on g, 12th fret
i don't fuckin' care anymore
c
i don't fuckin' care
f
i don't fuckin' care
c              g
i don't fuckin' care anymore
c
i don't fuckin' care
f
i don't fuckin' care
c              g
i don't fuckin' care anymore
c
i don't fuckin' care
f
i don't fuckin' care
c              g
i don't fuckin' care anymore
c
i don't fuckin' care
f
i don't fuckin' care
c              g
i don't fuckin' care anymore
c
i don't fuckin' care
f
i don't fuckin' care
c              g
i don't fuckin' care anymore

outro:		c
e->f
a->g
c
Добавлено: 27.11.2013
Другие материалы по этой песне:
  • Аккорды и текст

Страница создана 30.06.2012
http://primanota.ru/reel-big-fish/nothin-chords.htm
Привет, Гость.
Предлагаем пройти революционный курс по гитаре.
Подарок от PrimaNota.Ru, забирай!