PrimaNota.ru - самый крупный в мире бесплатный архив песенных текстов, аккордов, табулатур и нот


Reel Big Fish - Monkey Man - таба, бас-таба, видео

Регистрация Запомнить меня
Войти через:  Facebook Google Twitter Vk Yandex Mail.ru

Reel Big Fish - Monkey Man - таба, бас-таба, видео

Печатать
Просмотров: 127
Авторы музыки: Toots Hibbert
Авторы текста: Toots Hibbert
-------------------------------------------------------------------------------
                             Monkey Man - Reel Big Fish
-------------------------------------------------------------------------------
Tabbed by: slurms
Email:slurms.mckenzie@hotmail.com

Tuning:EADGBE



Intro Solo (Lead Guitar)
e|------------------------------------------------10---------11------|
B|--9------9-------9-------------------14------------------------13--|
G|----11b----11b---11b----------11h13------11h13------11h13----------|
D|----------------------11-------------------------------------------|x2
A|--------------------------11---------------------------------------|
E|-------------------------------------------------------------------|
Intro (Rhythm Guitar) 
e|----------------------------------|
B|----------------------------------|
G|------------------6---8-----------|
D|--6---6---6-6-6---6---8---6-6-6---| x 2
A|--6---6---6-6-6---4---6---6-6-6---|
E|--4---4---4-4-4-----------4-4-4---|





Chorus "Ay Ay Ay"(Both Guitars) Ska Rhythm and muting
e|--4--4--4--4--4--4--4--4--9--9---11-11--4--4--4--4----|
B|--4--4--4--4--4--4--4--4--9--9---11-11--4--4--4--4----|
G|--5--5--5--5--5--5--5--5--10-10--12-12--5--5--5--5----| x2
D|--6--6--6--6--6--6--6--6--11-11--13-13--6--6--6--6----|
A|--6--6--6--6--6--6--6--6--11-11--13-13--6--6--6--6----|
E|--4--4--4--4--4--4--4--4--9--9---11-11--4--4--4--4----|






Verse "I Never Saw You" (Both Guitars) Ska Rhythm and muting
e|--4--4--4--4--4--4--4--4--9--9---11-11--4--4--4--4----|
B|--4--4--4--4--4--4--4--4--9--9---11-11--4--4--4--4----|
G|--5--5--5--5--5--5--5--5--10-10--12-12--5--5--5--5----| x2
D|--6--6--6--6--6--6--6--6--11-11--13-13--6--6--6--6----|
A|--6--6--6--6--6--6--6--6--11-11--13-13--6--6--6--6----|
E|--4--4--4--4--4--4--4--4--9--9---11-11--4--4--4--4----|







Chorus "He told lies"(Both Guitars) Ska Rhythm and muting
e|--4--4--4--4--4--4--4--4--9--9---11-11--4--4--4--4----|
B|--4--4--4--4--4--4--4--4--9--9---11-11--4--4--4--4----|
G|--5--5--5--5--5--5--5--5--10-10--12-12--5--5--5--5----| x2
D|--6--6--6--6--6--6--6--6--11-11--13-13--6--6--6--6----|
A|--6--6--6--6--6--6--6--6--11-11--13-13--6--6--6--6----|
E|--4--4--4--4--4--4--4--4--9--9---11-11--4--4--4--4----|







Verse "Now I Know That" (Both Guitars) Ska Rhythm and muting
e|--4--4--4--4--4--4--4--4--9--9---11-11--4--4--4--4----|
B|--4--4--4--4--4--4--4--4--9--9---11-11--4--4--4--4----|
G|--5--5--5--5--5--5--5--5--10-10--12-12--5--5--5--5----| x2 
D|--6--6--6--6--6--6--6--6--11-11--13-13--6--6--6--6----|
A|--6--6--6--6--6--6--6--6--11-11--13-13--6--6--6--6----|
E|--4--4--4--4--4--4--4--4--9--9---11-11--4--4--4--4----|






Chorus "Ay Ay Ay"(Both Guitars) Ska Rhythm and muting
e|--4--4--4--4--4--4--4--4--9--9---11-11--4--4--4--4----|
B|--4--4--4--4--4--4--4--4--9--9---11-11--4--4--4--4----|
G|--5--5--5--5--5--5--5--5--10-10--12-12--5--5--5--5----| x2
D|--6--6--6--6--6--6--6--6--11-11--13-13--6--6--6--6----|
A|--6--6--6--6--6--6--6--6--11-11--13-13--6--6--6--6----|
E|--4--4--4--4--4--4--4--4--9--9---11-11--4--4--4--4----|






Trombone Solo
e|--4---4---4---4---9----11---4---4---|
B|--4---4---4---4---9----11---4---4---|
G|--5---5---5---5---10---12---5---5---|
D|--6---6---6---6---11---13---6---6---| x 2
A|--6---6---6---6---11---13---6---6---|
E|--4---4---4---4---9----11---4---4---|







Long Verse "La La La La" (Both Guitars) Ska Rhythm and muting
e|--4--4--4--4--4--4--4--4--9--9---11-11--4--4--4--4----|
B|--4--4--4--4--4--4--4--4--9--9---11-11--4--4--4--4----|
G|--5--5--5--5--5--5--5--5--10-10--12-12--5--5--5--5----| x6 
D|--6--6--6--6--6--6--6--6--11-11--13-13--6--6--6--6----|
A|--6--6--6--6--6--6--6--6--11-11--13-13--6--6--6--6----|
E|--4--4--4--4--4--4--4--4--9--9---11-11--4--4--4--4----|







Chorus "Ay Ay Ay"(Both Guitars) Ska Rhythm and muting
e|--4--4--4--4--4--4--4--4--9--9---11-11--4--4--4--4----|
B|--4--4--4--4--4--4--4--4--9--9---11-11--4--4--4--4----|
G|--5--5--5--5--5--5--5--5--10-10--12-12--5--5--5--5----| x2
D|--6--6--6--6--6--6--6--6--11-11--13-13--6--6--6--6----|
A|--6--6--6--6--6--6--6--6--11-11--13-13--6--6--6--6----|
E|--4--4--4--4--4--4--4--4--9--9---11-11--4--4--4--4----|





Outro Solo (Lead Guitar)
e|------------------------------------------------10---------11------|
B|--9------9-------9-------------------14------------------------13--|
G|----11b----11b---11b----------11h13------11h13------11h13----------|
D|----------------------11-------------------------------------------|x2
A|--------------------------11---------------------------------------|
E|-------------------------------------------------------------------|
Outro (Rhythm Guitar) 
e|----------------------------------|
B|----------------------------------|
G|------------------6---8-----------|
D|--6---6---6-6-6---6---8---6-6-6---| x 2
A|--6---6---6-6-6---4---6---6-6-6---|
E|--4---4---4-4-4-----------4-4-4---|

| /  slide up
| \  slide down
| h  hammer-on
| p  pull-off
| ~  vibrato
| +  harmonic
| b  bend
| x  Mute note
===============================================================================
Добавлено: 29.07.2012
Другие материалы по этой песне:
  • Аккорды и текст

Страница создана 29.07.2012
http://primanota.ru/reel-big-fish/monkey-man-chords.htm
Привет, Гость.
Предлагаем пройти революционный курс по гитаре.
Подарок от PrimaNota.Ru, забирай!