PrimaNota.ru - самый крупный в мире бесплатный архив песенных текстов, аккордов, табулатур и нот


Reel Big Fish - I Dare You To Break My Heart - таба, видео

Регистрация Запомнить меня
Войти через:  Facebook Google Twitter Vk Yandex Mail.ru

Reel Big Fish - I Dare You To Break My Heart - таба, видео

Печатать
Просмотров: 133
Уроки эстрадного вокала в Санкт-Петербурге
Авторы: Ryland Steen, Aaron Barrett

Band: Reel Big Fish
Song: I dare you to break my heart
Album: Candy Coated Fury
Tuning: Standard (eBGDAE)

Intro/Chorus x1
|----------------------------|
|----------------------------|
|-55------------------/9~-7~-|
|-55-55-23---3333-7-5--------|
|-33-55-23---3333-7-5--------|
|----33-01---1111-5-3--------|

Intro Solo x1
|----------------------------------------------------|
|--------------------------------------------5---5-7-|
|----5~----------------------------4-5-4-5-7---7-----|
|-5h7---5-7-5-7-5~---------5-7-5-7-------------------|
|------------------7-8-7-8---------------------------|
|----------------------------------------------------|

Pre verse                x4 1,3,     2,4
|-8--8--8~~-8--8--10~-10-10-|-12--12-|-10~-10-10-|
|-8--8--10~-10-10-10~-10-10-|-12--12-|-12~-12-12-|
|-9--9--10~-10-10-10~-10-10-|-12--12-|-12~-12-12-|
|-10-10-10~-10-10-12~-12-12-|-14--14-|-12~-12-12-|
|-10-10-8~~-8--8--12~-12-12-|-14--14-|-10~-10-10-|
|-8--8------------10~-10-10-|-12--12-|-----------|

Verse (Ska strumming) x6
|-x-8--x-8--x-8--x-8--x-10-x-10-x-10-x-10-|
|-x-8--x-8--x-10-x-10-x-10-x-10-x-12-x-12-|
|-x-9--x-9--x-10-x-10-x-10-x-10-x-12-x-12-|
|-x-10-x-10-x-10-x-10-x-12-x-12-x-12-x-12-|
|-x-10-x-10-x-8--x-8--x-12-x-12-x-10-x-10-|
|-x-8--x-8--x-----------10-x-10-x---------|

Pre chorus   x2 1,                  2
|---------------|-------------------|-------------------|
|---------------|-------------------|-------------------|
|---------------|-------------------|-------------------|
|-7777-xx-55555-|-2-2-222-3-33-3333-|-33333333-55555555-|
|-7777-xx-55555-|-2-2-222-3-33-3333-|-33333333-55555555-|
|-5555-xx-33333-|-0-0-000-1-11-1111-|-11111111-33333333-|

Chorus x2

End chorus x1
|-----------------------------------------------|
|-----------------------------------------------|
|-5555-------------2-2-222-5-55-5555---------5~-|
|-5555-5~-3-333333-2-2-222-5-55-5555-333-5-5-5~-|
|-3333-5~-3-333333-0-0-000-3-33-3333-333-5-5-3~-|
|------3~-1-111111-------------------111-3-3----|

Play all the above again starting from pre verse

Interlude x7
|------------|
|------------|
|-77-----9~~-|
|-77-7-7-9~~-|
|-55-7-7-7~~-|
|----5-5-----|

Solo       x3 1,               2,
|------------|-----------------|---------------|
|------------|-----8---10br-8~-|---------------|
|------------|-7h9---9---------|---------------|
|------------|-----------------|-7b~7777rp5----|
|-555--------|-----------------|-----------7p5-|
|-----5-5-0~-|-----------------|---------------|
                                    ^  ^ strum these 7's while holding the bend

3                                          x6 (or x8 if you
|-10br-10p8-------------10b~~----|-17p15p14-| have 2
|-----------10p8-10br-8-------17-|----------| guitarists)
|--------------------------------|----------|
|--------------------------------|----------|
|--------------------------------|----------|
|--------------------------------|----------|

(The first part of the solo actually plays 4 times, but there isn't enough time to play 
it if you have just one guitarist)

Small variation on intro solo: (x1)
|---------------------------------------------------------5----|
|-----------------------------------------------------5-----8~-|
|-7br~5~------------------------------------4-5-4-5-7---7------|
|-------5h7-7-5-7-7br5-5~-----------5-7-5-7--------------------|
|---------------------7---5h7-8-7-8----------------------------|
|--------------------------------------------------------------|

Pre verse x4


Verse variation x6
|------8---------8----------10----------10----|
|--------8----10---10----------10----12----12-|
|----9-----10------------10-------12----------|
|-10------------------12----------------------|
|---------------------------------------------|
|---------------------------------------------|

Pre chorus x2, break while rest of band play chorus x2

Chorus 2
         x1                           x2
|---------|-----------------------------|
|---------|-----------------------------|
|-/11~-9~-|-77------------------/11~-9~-|
|---------|-77-77-45---5555-9-7---------|
|---------|-55-77-45---5555-9-7---------|
|---------|----55-23---3333-7-5---------|

End Chorus 2     x1                  x3        x3       x1
|------------------|-------------------|---------|--------|
|------------------|-------------------|---------|--------|
|-7777-------------|-4-4-444-7-77-7777-|---------|-7~~-77-|
|-7777-7~-5-555555-|-4-4-444-7-77-7777-|-555-7-7-|-7~~-77-|
|-5555-7~-5-555555-|-2-2-222-5-55-5555-|-555-7-7-|-5~~-55-|
|------5~-3-333333-|-------------------|-333-5-5-|--------|
Добавлено: 07.09.2013
Другие материалы по этой песне:
  • Аккорды и текст

Страница создана 07.09.2013
http://primanota.ru/reel-big-fish/i-dare-you-to-break-my-heart-chords.htm
Привет, Гость.
Предлагаем пройти революционный курс по гитаре.
Подарок от PrimaNota.Ru, забирай!