PrimaNota.ru - самый крупный в мире бесплатный архив песенных текстов, аккордов, табулатур и нот


Reel Big Fish - Everybody's Drunk - текст песни, таба, видео

Регистрация Запомнить меня
Войти через:  Facebook Google Twitter Vk Yandex Mail.ru

Reel Big Fish - Everybody's Drunk - текст песни, таба, видео

Печатать
Просмотров: 90
----------------------------------------------------|
                 Everybody's Drunk - Reel Big Fish -|
Tabbed by: Mike T
Email: mtred@comcast.net
  As always, timing's off. Playing it corresponding to the actual song works best.
Tuning:EADGBe
 For the intro, I'm not quite sure what he's playing, but this works as well.     |0:04-0:12
e|-2-2-0-0-3--3-3--3---------------------------------------------------------|
B|-3-3-2-2-3--3-3--3---------------------------------------------------------|

G|-2-2-2-2-0--0-0--0---------------------------------------------------------|x2
D|---------0--0-0--0---------------------------------------------------------|
A|---------2--2-2--2---------------------------------------------------------|
E|---------3--3-3--3---------------------------------------------------------|
   Chorus Riff |  Before you change chords i recommend adding an upstroke dead
note  0:12-0:26 e|---------------------------------------------------------------------------|

B|---------------------------------------------------------------------------|
G|-7-7-----------------------------------------------------------------------|x4
D|-7-7x7-7x5--5-5------------------------------------------------------------|
A|-5-5x7-7x5--5-5------------------------------------------------------------|
E|----x5-5x3--3-3------------------------------------------------------------|
   Verse 1 0:26-0:39
e|-5-5-x-5---5-x-5s3-3-x-3---3-x-3s5-5-x-5---5-x-5s3-3-x-3---3-x-3-----------|
B|-5-5-x-5---5-x-5s3-3-x-3---3-x-3s5-5-x-5---5-x-6s3-3-x-3---3-x-3-----------|
G|-6-6-x-6---6-x-6s4-4-x-4---4-x-4s6-6-x-6---6-x-7s4-4-x-4---4-x-4-----------|
D|-7-7-x-7---7-x-7s5-5-x-5---5-x-5s7-7-x-7---7-x-7s5-5-x-5---5-x-5-----------|
A|---------------------------------------------------------------------------|
E|---------------------------------------------------------------------------|
  The rest of the verse is
e|-5-5-x-5---5-x-5s3-3-x-3---3-x-3s5-5-x-5---5-x-5---------------------------|
B|-5-5-x-5---5-x-5s3-3-x-3---3-x-3s5-5-x-5---5-x-6---------------------------|
G|-6-6-x-6---6-x-6s4-4-x-4---4-x-4s6-6-x-6---6-x-7---------------------------|
D|-7-7-x-7---7-x-7s5-5-x-5---5-x-5s7-7-x-7---7-x-7-5-x-5-x-5-x-5-x-----------|
A|-------------------------------------------------5-x-5-x-5-x-5-x-----------|
E|-------------------------------------------------3-x-3-x-3-x-3-x-----------|
  Chorus 1 0:39-0:53
e|---------------------------------------------------------------------------|
B|---------------------------------------------------------------------------|
G|-7-7-----------------------------------------------------------------------|x4
D|-7-7x7-7x5--5-5------------------------------------------------------------|
A|-5-5x7-7x5--5-5------------------------------------------------------------|
E|----x5-5x3--3-3------------------------------------------------------------|
  Verse 2 0:53-1:06
e|-5-5-x-5---5-x-5s3-3-x-3---3-x-3s5-5-x-5---5-x-5s3-3-x-3---3-x-3-----------|
B|-5-5-x-5---5-x-5s3-3-x-3---3-x-3s5-5-x-5---5-x-6s3-3-x-3---3-x-3-----------|
G|-6-6-x-6---6-x-6s4-4-x-4---4-x-4s6-6-x-6---6-x-7s4-4-x-4---4-x-4-----------|
D|-7-7-x-7---7-x-7s5-5-x-5---5-x-5s7-7-x-7---7-x-7s5-5-x-5---5-x-5-----------|
A|---------------------------------------------------------------------------|
E|---------------------------------------------------------------------------|
  then comes this part again
e|-5-5-x-5---5-x-5s3-3-x-3---3-x-3s5-5-x-5---5-x-5---------------------------|
B|-5-5-x-5---5-x-5s3-3-x-3---3-x-3s5-5-x-5---5-x-6---------------------------|
G|-6-6-x-6---6-x-6s4-4-x-4---4-x-4s6-6-x-6---6-x-7---------------------------|
D|-7-7-x-7---7-x-7s5-5-x-5---5-x-5s7-7-x-7---7-x-7-5-x-5-x-5-x-5-x-----------|
A|-------------------------------------------------5-x-5-x-5-x-5-x-----------|
E|-------------------------------------------------3-x-3-x-3-x-3-x-----------|
  Chorus 2 1:07-1:21
e|---------------------------------------------------------------------------|
B|---------------------------------------------------------------------------|
G|-7-7-----------------------------------------------------------------------|x4
D|-7-7x7-7x5--5-5------------------------------------------------------------|
A|-5-5x7-7x5--5-5------------------------------------------------------------|
E|----x5-5x3--3-3------------------------------------------------------------|
  Nothing could be played between 1:21-1:32
e|---------------------------------------------------------------------------|
B|---------------------------------------------------------------------------|
G|---------------------------------------------------------------------------|
D|---------------------------------------------------------------------------|
A|---------------------------------------------------------------------------|
E|---------------------------------------------------------------------------|
  The palm muting before the solo 1:32-1:35
e|---------------------------------------------------------------------------|
B|---------------------------------------------------------------------------|
G|---------------------------------------------------------------------------|
D|-7-7-7-7-7-7-7-7-7-7-7-7-7-7-7-7-------------------------------------------|
A|-7-7-7-7-7-7-7-7-7-7-7-7-7-7-7-7-------------------------------------------|
E|-5-5-5-5-5-5-5-5-5-5-5-5-5-5-5-5-------------------------------------------|
pm|. . . . . . . . . . . . . . . .|
      Guitar Solo 1:35-1:49
e|------------------------------------------12----14----15----14----12----14----15----14-------|
B|---------------------7--7-7-5-7-10--8-7---10-10-10-10-10-10-10-10-10-10-10-10-10-10-10-10----|
G|-7--7-7-6-7-4--------------------------------------------------------------------------------|
D|---------------7-5---------------------------------------------------------------------------|
A|---------------------------------------------------------------------------------------------|
E|---------------------------------------------------------------------------------------------|

e|-10h12h10h12h14h12h10h12h10-----------------------10-----------------------|
B|----------------------------------7h10---10h7------------------------------|
G|-------------------------------7h9----7h9-----7-9--------------------------|
D|---------------------------------------------------------------------------|
A|---------------------------------------------------------------------------|
E|---------------------------------------------------------------------------|
  Verse 3 1:49-2:03
e|-5-5-x-5---5-x-5s3-3-x-3---3-x-3s5-5-x-5---5-x-5s3-3-x-3---3-x-3-----------|
B|-5-5-x-5---5-x-5s3-3-x-3---3-x-3s5-5-x-5---5-x-6s3-3-x-3---3-x-3-----------|
G|-6-6-x-6---6-x-6s4-4-x-4---4-x-4s6-6-x-6---6-x-7s4-4-x-4---4-x-4-----------|
D|-7-7-x-7---7-x-7s5-5-x-5---5-x-5s7-7-x-7---7-x-7s5-5-x-5---5-x-5-----------|
A|---------------------------------------------------------------------------|
E|---------------------------------------------------------------------------|
                                                   Pre-Chorus
e|-5-5-x-5---5-x-5s3-3-x-3---3-x-3s5-5-x-5---5-x-5---------------------------|
B|-5-5-x-5---5-x-5s3-3-x-3---3-x-3s5-5-x-5---5-x-6---------------------------|
G|-6-6-x-6---6-x-6s4-4-x-4---4-x-4s6-6-x-6---6-x-7---------------------------|
D|-7-7-x-7---7-x-7s5-5-x-5---5-x-5s7-7-x-7---7-x-7-5-x-5-x-5-x-5-x-----------|
A|-------------------------------------------------5-x-5-x-5-x-5-x-----------|
E|-------------------------------------------------3-x-3-x-3-x-3-x-----------|
  We're Not Gonna Take It 2:03-2:17
 "we're all gonna get drunk,  Oh,  we're all gonna get drunk                      e|--|
B|------------------------------------------------------------------------------------|
G|-7--------------------------7-------------------------------------------------------|
D|-7----xx--------------------7----xx-------------------------------------------------|
A|-5----xx--------------------5----xx-------------------------------------------------|
E|------xx-------------------------xx-------------------------------------------------|
  Oh wait we're already      drunk"
e|---------------------------------------------------------------------------|
B|---------------------------------------------------------------------------|
G|-7-------------------------7-7-7-7-----------------------------------------|
D|-7---xx--------------------7-7-7-7-7-7-7-7-5-5-5-5-5-5-5-5-----------------|
A|-5---xx--------------------5-5-5-5-7-7-7-7-5-5-5-5-5-5-5-5-----------------|
E|-----xx----------------------------5-5-5-5-3-3-3-3-3-3-3-3-----------------|
  Chorus 3 2:17-2:31
e|---------------------------------------------------------------------------|
B|---------------------------------------------------------------------------|
G|-7-7-----------------------------------------------------------------------|x4
D|-7-7x7-7x5--5-5------------------------------------------------------------|
A|-5-5x7-7x5--5-5------------------------------------------------------------|
E|----x5-5x3--3-3------------------------------------------------------------|
  Fa La La 2:31-2:44
e|---------------------------------------------------------------------------|
B|---------------------------------------------------------------------------|
G|-9-9-----------------------------------------------------------------------|x3
D|-9-9-9-9-7--7-7------------------------------------------------------------|
A|-7-7-9-9-7--7-7------------------------------------------------------------|
E|-----7-7-5--5-5------------------------------------------------------------|

  finish with

e|---------------------------------------------------------------------------------|
B|---------------------------------------------------------------------------------|
G|-9-------------------------------------------------------------------------------|
D|-9-----9-----7~------------------------------------------------------------------|
A|-7-----9-----7~------------------------------------------------------------------|
E|-------7-----5~------------------------------------------------------------------|

  Well there it is, Everybody's Drunk. hope it's good, email me telling me it's not if 
not, or tell me it's good. sorry for the timing issues!

| /  slide up
| \  slide down
| h  hammer-on
| p  pull-off
| ~  vibrato
| +  harmonic
| x  Mute note
===============================================================================
Добавлено: 27.11.2013
Другие материалы по этой песне:
  • Аккорды и текст

Страница создана 28.07.2012
http://primanota.ru/reel-big-fish/everybodys-drunk-chords.htm
Привет, Гость.
Предлагаем пройти революционный курс по гитаре.
Подарок от PrimaNota.Ru, забирай!