PrimaNota.ru - самый крупный в мире бесплатный архив песенных текстов, аккордов, табулатур и нот


Reel Big Fish - Drinkin - текст песни, таба, видео

Регистрация Запомнить меня
Войти через:  Facebook Google Twitter Vk Yandex Mail.ru

Reel Big Fish - Drinkin - текст песни, таба, видео

Печатать
Просмотров: 100
Уроки эстрадного вокала в Санкт-Петербурге
-------------------------------------------------------------------------------
                        DRINKIN (solo) - Reel Big Fish
                 Our Live Album Is Better Than Your Live Album
-------------------------------------------------------------------------------
Tabbed by: vtaerorocker
Email: civalier@vt.edu

Don't know why this entire solo isn't tabbed out yet, so I figured I'd
put it up here.  I figured this out by listening to the live album, but I'm pretty 
it's the same as in the studio version.

Tuning: Standard

e|------------------------------------------------------------|
B|------------------------------------------------------------|
G|------------------------------------------------------------|
D|------------------------------------------------------------|
A|----------5-7-5--------7-9-7-4h5-5-5-4h5-5-5-4h5-5-5-5-5----|
E|-/\3~-5/7-------5~-7/9--------------------------------------|

e|-----------------------------10-10-10-10-10-10-----------------|
B|-----------------------------10-10-10-10-10-10-8p6-8p6-7-7~----|
G|---------------------------------------------------------------|
D|---------------------------------------------------------------|
A|----------5-7-5--------7-9-7-----------------------------------|
E|-/\3~-5/7-------5~-7/9-----------------------------------------|

e|-3---3---6p5p3-------5---5---8p7p5-----------------------------|
B|-3---3--------6p5p3--5---5--------8p7p5------------------------|
G|---------------------------------------------------------------|
D|---------------------------------------------------------------|
A|---------------------------------------------------------------|
E|---------------------------------------------------------------|

e|-10-----10-10-----10-10---------7------7--7------7--7----------|
B|-13fb15-15r13fb15-15r13fb15r-----10fb12-12r10fb12-12r10fb12r---|
G|---------------------------------------------------------------|
D|---------------------------------------------------------------|
A|---------------------------------------------------------------|
E|---------------------------------------------------------------|

e|--------------------------------------------|
B|-8------8---------10------------------------|
G|-10fb12r10fb12r---12fb14r12fb14r------------|
D|--------------------------------------------|
A|--------------------------------------------|
E|--------------------------------------------|
Добавлено: 08.06.2013
Другие материалы по этой песне:
  • Аккорды и текст

Страница создана 01.06.2013
http://primanota.ru/reel-big-fish/drinkin-chords.htm
Привет, Гость.
Предлагаем пройти революционный курс по гитаре.
Подарок от PrimaNota.Ru, забирай!