PrimaNota.ru - самый крупный в мире бесплатный архив песенных текстов, аккордов, табулатур и нот


Reel Big Fish - Dont Start A Band - текст песни, таба, бас-таба, видео

Регистрация Запомнить меня
Войти через:  Facebook Google Twitter Vk Yandex Mail.ru

Reel Big Fish - Dont Start A Band - текст песни, таба, бас-таба, видео

Печатать
Просмотров: 85
Intro
  (No Distortion)                                (Distortion)
 E-----------------------------------------------------------------|
 B-----------------------------------------------------------------|
 G----4-----4-------4-------------4---------------6----------------|
 D-2--4--4--4----2--4--6--4----2--4--4--2---------6---------4------|
 A-2--2--4--2----2--2--6--4----2--2--4--2---------4---------4------|
 E-0-----2-------0-----4--2----0-----2--0-------------------2------|

      Verse
   (Distortion, Palm Muted)      (No distortion)
 E---------------------------------7--6--7--7----------------------|
 B---------------------------------7--6--9--9----------------------|
 G-------------9--8--6--6----2X----8--7--9--9----2X----------------|
 D-9--8--6--6--9--8--6--6----------9--8--9--9----------------------|
 A-9--8--6--6--7--6--4--4------------------------------------------|
 E-7--6--4--4------------------------------------------------------|
    Pre-Chorus
   (Distortion)
 E-----------------------------------------------------------------|
 B-----------------------------------------------------------------|
 G-------6--9--11--------------------------------------------------|
 D-6--9--6--9--11--------------------------------------------------|
 A-6--9--4--7--9---------------------------------------------------|
 E-4--7------------------------------------------------------------|
	Chorus
   (Distortion)                              (Palm Muted)
 E------------------------------------------------------------------|
 B------------------------------------------------------------------|
 G----4-----4-----4-----------4-----9---------6---------------------|
 D-2--4--4--4--2--4--6--4--2--4--4--9---------6----4----------------|
 A-2--2--4--2--2--2--6--4--2--2--4--7---------4----4----------------|
 E-0-----2-----0-----4--2--0-----2-----------------2----------------|
    Post-Chorus
   Rhythm Guitar           Lead Guitar
  (No Distortion)          (Distortion)
 E-7--7--7--7------------------------------------------------------|
 B-7--7--9--9---------------------------------2-1-0----------------|
 G-8--8--9--9----4X--------1 measure rest------------------2-------|
 D-9--9--9--9------------------------------------------------------|
 A-----------------------------------------------------------------|
 E-----------------------------------------------------------------|
	   Verse

         Pre-Chorus

         Chorus

       Solo
   (Distortion, Rhythm Guitar Plays the Chorus)
 E-----------------------------------------------------------------|
 B-9--7--5-4-5--7--0-------------5-4-5-4---------------------------|
 G-----------------------4-4--6-----------6--4---------------------|
 D--------------------6--------------------------------------------|
 A-----------------------------------------------------------------|
 E-----------------------------------------------------------------|

 E-16--14--12--11--12--14-------------------------------------------|
 B-------------------------12----12--12--12--12----14--12--12--12---|
 G---------------------------------11------11--11----11------11--11-|
 D------------------------------------------------------------------|
 A------------------------------------------------------------------|
 E------------------------------------------------------------------|
                                         (Palm Muted)
 E-----------------------------------------------------------------|
 B-12-14-16-14-12--------------------------------------------------|
 G-----------------13-11--9-8-6------8---9-11-13-14-13---14-13-9---|
 D------------------------------11-9-------------------------------|
 A-----------------------------------------------------------------|
 E-----------------------------------------------------------------|

 E-----------------------------------------------------------------|
 B-12--11--7--5--4--0----------------------------------------------|
 G-----------------------------------------------------------------|
 D-----------------------------------------------------------------|
 A-----------------------------------------------------------------|
 E-----------------------------------------------------------------|
       Bridge
   (No Distortion)                  (Distortion, Palm Muted)
 E-----------------------------------------------------------------|
 B-----------------------------------------------------------------|
 G-------------9--8--6--6-----------------------9--8--6--6---------|
 D-9--8--6--6--9--8--6--6-----------9--8--6--6--9--8--6--6---------|
 A-9--8--6--6--7--6--4--4-----------9--8--6--6--7--6--4--4---------|
 E-7--6--4--4-----------------------7--6--4--4---------------------|
   (Distortion)
 E-----------------------------------------------------------------|
 B-----------------------------------------------------------------|
 G-4----------3h4-6---------3h4-4----------------------------------|
 D-----------------------------------------------------------------|
 A-----------------------------------------------------------------|
 E-----------------------------------------------------------------|
        Pre-Chorus

      Chorus
   (Distortion)
 E-----------------------------------------------------------------|
 B-----------------------------------------------------------------|
 G----Rest--------4-----------4-----9---------6--------------------|
 D-------------2--4--6--4--2--4--4--9---------6----4---------------|
 A-------------2--2--6--4--2--2--4--7---------4----4---------------|
 E-------------0-----4--2--0-----2-----------------2---------------|
      Outro
   (Distortion)
 E-----------------------------------------------------------------|
 B-----------------------------------------------------------------|
 G----4-----4---2X-------------------------------------------------|
 D-2--4--2--4------------------------------------------------------|
 A-2--2--2--2------------------------------------------------------|
 E-0-----0---------------------------------------------------------|


 So ummm, yeah there you go
 I think its pretty accurate
Peace Out
John
(Check it, www.myspace.com/theskaratekids, oh yeah!!)
Добавлено: 27.10.2013
Другие материалы по этой песне:
  • Аккорды и текст

Страница создана 09.08.2013
http://primanota.ru/reel-big-fish/dont-start-a-band-chords.htm
Привет, Гость.
Предлагаем пройти революционный курс по гитаре.
Подарок от PrimaNota.Ru, забирай!