PrimaNota.ru - самый крупный в мире бесплатный архив песенных текстов, аккордов, табулатур и нот


Reel Big Fish - Cannibal - текст песни, таба, бас-таба, видео

Регистрация Запомнить меня
Войти через:  Facebook Google Twitter Vk Yandex Mail.ru

Reel Big Fish - Cannibal - текст песни, таба, бас-таба, видео

Печатать
Просмотров: 112
----------------------------------------------------------------------------
			Cannibal - Reel Big Fish
----------------------------------------------------------------------------

Tabbed by: Maiden_rule
Email: daniel_keay_93@msn.com

Tuning: Standard

Intro (he uses some special super phaser pedal but it sounds alright jsut on clean)
e|-------------------------------------------------|  And you play that for
B|--14---------12-12-12--12-12---12-12-12--12-12---|  a while just pick
G|--14--x16----12-12-12--12-12---12-12-12--12-12---|  the top note on the B
D|--14---------12-12-12--12-12---12-12-12--12-12---|  every now and again
A|--12---------10-10-10---9-10---10-10-10---9-10---|  and it sounds coool
E|-------------------------------------------------|

Main Riff/Chorus (Distortion)
For this bit its pretty much the clean riff played an octave lower
e|------------------------|
B|------------------------|
G|------------------------|   And thats played right through the chorus
D|--7-------4------5------|
A|--7--x16--4--x8--5--x8--|
E|--5-------2------3------|

Verse Pt 1
e|--------------------------------|
B|--------------------------------|
G|--------------------------------|
D|--5-5-4-4-----------------------|
A|----------5-5------5-5-----5-5--|
E|---------------2-2-----3-3------|

Then for part 2 its moved up an octave

Verse Pt 2
e|--------------------------------------------|
B|--------------------------------------------|
G|--12-12-11-11-------------------------------|
D|--------------12-12------12-12-------12-12--|
A|---------------------9-9-------10-10--------|
E|--------------------------------------------|

Then the chorus is just the main riff played over and over again.

Bridge (after lots of feedback and wah-wah pedaling)
e|-----------------------------------------------------------|
B|----------------------------------And on the 3rd time add--|
G|-----------------------------------------------------------|
D|-7-7-7~--10-10-10~--14-14-14~--x2---------19-19-19~--------|
A|-----------------------------------------------------------|
E|-----------------------------------------------------------|

Bridge 2 "You've got a new set of problems, its not your fault this time"
e|------------------|
B|------------------|
G|------------------| x4
D|--7-7---4-4--5-5--|
A|--7-7---4-4--5-5--|
E|--5-5---2-2--3-3--|

Clean Chorus
e|--------------------------|
B|-14-------11------12------|
G|-14--x16--11--x8--12--x8--|  Whole thing x2
D|-14-------11------12------|
A|-12--------9------10------|
E|--------------------------|

Then its the normal chorus to the end then the piano comes in but I couldn't work out 
solo but could work out the rhythm the guitar plays over the orchestra.

e|-----------------------------|
B|-----------------------------|
G|-----------------------------|   The solos played also during the
D|-----------------------------|   instrumental end bit but thats sort of
A|--------4-5------------------|   running throughout the end.
E|--5~----------2~----0-2--3~--|


| /  slide up
| \  slide down
| h  hammer-on
| p  pull-off
| ~  vibrato
| +  harmonic
| x  Mute note
===============================================================================
Добавлено: 28.06.2013
Другие материалы по этой песне:
  • Аккорды и текст

Страница создана 27.03.2012
http://primanota.ru/reel-big-fish/cannibal-chords.htm
Привет, Гость.
Предлагаем пройти революционный курс по гитаре.
Подарок от PrimaNota.Ru, забирай!