PrimaNota.ru - самый крупный в мире бесплатный архив песенных текстов, аккордов, табулатур и нот


Reel Big Fish - Bad Guy - текст песни, таба, бас-таба, видео

Регистрация Запомнить меня
Войти через:  Facebook Google Twitter Vk Yandex Mail.ru

Reel Big Fish - Bad Guy - текст песни, таба, бас-таба, видео

Печатать
Просмотров: 85
-----------------------------------------------------------------------------
			     The Bad Guy - Reel Big Fish
-----------------------------------------------------------------------------
Tabbed by: donjuan
Email: wilga219@cs.com

Tuning: Standard

  Intro (clean with wah pedal)
e|---15--15--x--15--x-x--|-----------------------------------|\
B|----x--x---x---x--x-x--|----13--13--x--13--13--------------| \
G|---12--12--x--12--x-x--|-----x---x--x---x---x--------------|  \  two
D|-----------------------|----10--10--x--10--10--------------|  / times
A|-----------------------|-----------------------------------| /
E|-----------------------|-----------------------------------|/
         3 times                       on 4th time

   Verse (clean)
e|----------------------------------|---------------------------|
B|----------------------------------|-----------8-8-8-9-8-------|
G|----------------------------------|---------------------------|
D|---------7p5---5--7-5-------------|--7~--3~-------------------|
A|-------5-----5--------7-5-3-3-5---|--7~--3~-------------------|
E|---3-3----------------------------|--5~--1~-------------------|
               4 times               then play (with distortion)

   Chorus (distortion)
e|-----------------------------------|--------------------------------|
B|-----------------------------------|--------------------------------|
G|--5-5-5-5--------------------------|--3-3-3-3-3-3-3-3---------------|
D|--5-5-5-5-2-2-2-2-3-3-3-3-5-5-5-5--|--3-3-3-3-3-3-3-3-3-3-3-3-3-----|
A|--3-3-3-3-2-2-2-2-3-3-3-3-5-5-5-5--|--1-1-1-1-1-1-1-1-3-3-3-3-3-----|
E|----------0-0-0-0-1-1-1-1-3-3-3-3--|------------------1-1-1-1-1-----|
                3 times                           then play

e|----------------------------------|
B|----------------------------------|
G|--3-3-3-3-3-3-3-3-----------------|
D|--3-3-3-3-3-3-3-3-3-3-3-3-3-4-5~--|
A|--1-1-1-1-1-1-1-1-3-3-3-3-3-4-5~--|
E|------------------1-1-1-1-1-2-3~--|
   Play this at the end of the
   second chorus right before 
        the guitar solo


  Solo (distortion)
e|--------------11b12---------------------------------------17b19-15h17-15-|
B|---------------------15-13-12--------------------------------------------|
G|--5-4-------------------------12----12-14-14b16b14-12----12--------------|
D|------5~-------------------------14-------------------14-----------------|
A|-------------------------------------------------------------------------|
E|-------------------------------------------------------------------------|


  Interlude (distortion)
e|---------------------------|------------------------------------------|
B|---------------------------|------------------------------------------|
G|------------------5-5-5-5--|------------------------------------------|
D|--5-5-3-3/5-5-3-3-5-5-5-5--|--7-7-7-7-7-7-7-7-3-3-3-3-3-3-3-3---------|
A|--5-5-3-3/5-5-3-3-3-3-3-3--|--7-7-7-7-7-7-7-7-3-3-3-3-3-3-3-3---------|
E|--3-3-0h1/3-3-1-1----------|--5-0-5-0-5-0-5-0-1-0-1-0-1-0-1-0---------|
           5 times                  3 times (with wah pedal)


  Breakdown (clean with wah pedal)
e|---8--8-\7-7\5-5/7-7--|---7-------|
B|---8--8-\8-8\6-6/8-8--|-----8-----|
G|---9--9-\7-7\5-5/7-7--|-------7---| Play this on second time instead of the
D|---10-10\9-9\7-7/9-9--|-----------| last two chords
A|----------------------|-----------|
E|----------------------|-----------|
         4 times

  Outro (distortion)
e|-------------------------------------------------|
B|-------------------------------------------------|
G|----------------------5-5------------------------|
D|--3-4-5-5-3-3/5-5-3-3-5-5-5-5~-------------------|
A|--3-4-5-5-3-3/5-5-3-3-3-3-5-5~-------------------|
E|--1-2-3-3-0h1/3-3-1-1-----3-3~-------------------|


| /  slide up
| \  slide down
| h  hammer-on
| p  pull-off
| ~  let ring
| +  harmonic
| x  Mute note
=============================================================================
Добавлено: 15.09.2013
Другие материалы по этой песне:
  • Аккорды и текст

Страница создана 15.09.2013
http://primanota.ru/reel-big-fish/bad-guy-chords.htm
Привет, Гость.
Предлагаем пройти революционный курс по гитаре.
Подарок от PrimaNota.Ru, забирай!