PrimaNota.ru - самый крупный в мире бесплатный архив песенных текстов, аккордов, табулатур и нот


Reel Big Fish - Another Day In Paradise - текст песни, бас-таба, видео

Регистрация Запомнить меня
Войти через:  Facebook Google Twitter Vk Yandex Mail.ru

Reel Big Fish - Another Day In Paradise - текст песни, бас-таба, видео

Печатать
Просмотров: 192
Уроки эстрадного вокала в Санкт-Петербурге
Pre-Intro (?)
G|-----------------|
D|-----------------|
A|-7--5-0--7--5/15-|
E|-----------------|

Intro x2
G|------------------------------------------|
D|------------------------------------------|
A|-77777777-5555/12121212-77777777-55553333-|
E|------------------------------------------|

Verse x3
G|-----------------------------------------------|
D|-----5-7-5-------7-5---------5-7-5-------8-7-5-|
A|-7-7-------7-5-5-----7-5-7-7-------7-5-5-------|
E|-----------------------------------------------|

cont.
G|-----------------------------------------------|
D|-----5-7-5-------7-5---------5-7-5-------------|
A|-7-7-------7-5-5-----7-5-7-7-------7-5-5-5~-0~-|
E|-----------------------------------------------|

Chorus x2
G|-----------------------------------|
D|-----------------------------------|
A|-7-7-777-2-2-222-3-3-333-----------|
E|-------------------------3333-2222-|

Intro
Verse
Chorus
Intro

Breakdown
G|-----------------------------------------------------------------------------------------|
D|-44444444-22222222----------55555555-44444444-22222222-----------------------------------|
A|-------------------55555555----------------------------55555555--------------------------|
E|----------------------------------------------------------------333333333333333333333333-|

Verse
Chorus

Bridge
G|-------------------------------------------------------------------|
D|-------------------------------------------------------------------|
A|-7-7--7-2-2--2-3-3--3--------7-7--7-2-2--2-3-3--3-5555555555555555-|
E|----------------------33-22----------------------------------------|

Intro

End
G|----|
D|----|
A|-7~-|
E|----|
Добавлено: 05.11.2013
Другие материалы по этой песне:
  • Аккорды и текст

Страница создана 04.07.2012
http://primanota.ru/reel-big-fish/another-day-in-paradise-chords.htm
Привет, Гость.
Предлагаем пройти революционный курс по гитаре.
Подарок от PrimaNota.Ru, забирай!