PrimaNota.ru - самый крупный в мире бесплатный архив песенных текстов, аккордов, табулатур и нот


Reel Big Fish - All I Want Is More - аккорды и текст, таба, бас-таба, драм-таба, видео

Регистрация Запомнить меня
Войти через:  Facebook Google Twitter Vk Yandex Mail.ru

Reel Big Fish - All I Want Is More - аккорды и текст, таба, бас-таба, драм-таба, видео

Печатать
Просмотров: 87
Авторы: Adam Polakoff, Aaron Barrett, Matt Wong

All I Want Is More
Reel Big Fish
Intro:		[e5--5--4--4--2--2--2/4--4--
B5--5--5--5--3--3--3/5--5--
G6--6--6--6--2--2--2/4--4--
D--------------------------
A--------------------------
E--------------------------

e5--5--4--4--2--3--8--8--
B5--5--5--5--3--3--7--7--
G6--6--6--6--2--2--------
D------------------------
A------------------------
E------------------------]

Riff 1:
played first when the distortion kicks in after the Intro
[e-----------------------
B-----------------------
G------6--6--7--7-------
D7--7--6--6--7--7--4--5- } x3
A7--7--4--4--5--5--4--5-
E5--5--------------2--3-]

then
[e---------------------------
B---------------------------
G--7--6-----7--6------------
D--7--6--7--7--6--7--2------
A--5--4--7--5--4--7--2------
E--------5--------5--0------]

then
[e--------------------
B--------------------
G--------------------
D-------------------- } x3
A--7--7--7--5--4--0--
E--------------------]

then
[e---------------------------------
B---------------------------------
G---------------------------------
D---------------------------------
A7--7--7--5--4--5--5--5--4--2--0--
E---------------------------------

Verses:		e-----------
B-----------
G---------7-
D7--2--4--7-
A7--2--4--5-
E5--0--2----]

p.m.--------->

Use Riff 1 for the chorus

Little Interlude part(after "I'll always wait for her"):
[e----------------------
B9--9--10-9--7--7--8--7
G9--9--9--9--7--7--7--7
D9--9--9--9--7--7--7--7
A7--7--7--7--5--5--5--5
E----------------------]

Play the Intro part at the end...
Добавлено: 25.08.2013
Другие материалы по этой песне:

Страница создана 16.04.2012
http://primanota.ru/reel-big-fish/all-i-want-is-more-chords.htm
Привет, Гость.
Предлагаем пройти революционный курс по гитаре.
Подарок от PrimaNota.Ru, забирай!