PrimaNota.ru - самый крупный в мире бесплатный архив песенных текстов, аккордов, табулатур и нот


Reef - Levels - текст песни, таба, видео

Регистрация Запомнить меня
Войти через:  Facebook Google Twitter Vk Yandex Mail.ru

Reef - Levels - текст песни, таба, видео

Печатать
Просмотров: 90
Artist: Reef
Song: Levels
Album: Getaway


Intro/Verse
|-7------7-h-8-p-7----5----3--|-----3p2---2--0--|
|-8----------------7----5--5--|-3s5-----3--3-1--|
|-0------------------------0--|--------------0--|
|-----------------------------|-----------------|
|-----------------------------|-----------------|
|-----------------------------|-----------------|

|-----0h2---2---3-|--3---s--5--5-|
|-0h1-----3---3---|--5---s--7--7-|
|-----------------|--0---s--0----|
|-----------------|--------------|
|-----------------|--------------|
|-----------------|--------------|


Chorus:  |G / / / | |G / / / | |Em / / / | |Em / Em/F# /|






all ma own wurk
     
Добавлено: 30.09.2013
Другие материалы по этой песне:

Страница создана 17.03.2012
http://primanota.ru/reef/levels-chords.htm
Привет, Гость.
Предлагаем пройти революционный курс по гитаре.
Подарок от PrimaNota.Ru, забирай!