PrimaNota.ru - самый крупный в мире бесплатный архив песенных текстов, аккордов, табулатур и нот


Reece Mastin - She Calls This Love - таба, видео

Регистрация Запомнить меня
Войти через:  Facebook Google Twitter Vk Yandex Mail.ru

Reece Mastin - She Calls This Love - таба, видео

Печатать
Просмотров: 64
-------------------------------------------------------------------------------
                            SHE CALLS THIS LOVE - Reece Mastin
-------------------------------------------------------------------------------

Tabbed by:

Tuning: Standard

e|---------------------------------------------------------------------|
B|--9b(11)~~--7-9b(11)--9p7h9---/7-9------7---7-6---7-6---7-6---7-6----|
G|-----------------------------------8------8-----8-----8-----8-----8--|
D|---------------------------------------------------------------------|
A|---------------------------------------------------------------------|
E|---------------------------------------------------------------------|

e|---------------------------------------------------------------------|
B|---------------------------------------------------------------------|
G|--8--10h11p10p8--10h11p10p8--10h11p10p8--10h11p10p8--8-11h13p11p8----|
D|---------------------------------------------------------------------|
A|---------------------------------------------------------------------|
E|---------------------------------------------------------------------|

e|---------------------------------------------------------------------------|
B|-------------------------------------------14----14-16-16~~--16-16p14------|
G|--11h13p11p8--11h13p11p8--11h13p11p8---/15----15----------------------15---|
D|---------------------------------------------------------------------------|
A|---------------------------------------------------------------------------|
E|---------------------------------------------------------------------------|

e|--16b(18)pbr-pbr--16-16----16--------------17----16----17----16--11/13-13~~|
B|------------------------18----18--16-18-18----18----18----18---------------|
G|---------------------------------------------------------------------------|
D|---------------------------------------------------------------------------|
A|---------------------------------------------------------------------------|
E|---------------------------------------------------------------------------|

e|--11/13-13/14-14--16~~~~~~----------------------------------------------------|
B|------------------------------------------------------------------------------|
G|------------------------------------------------------------------------------|
D|------------------------------------------------------------------------------|
A|------------------------------------------------------------------------------|
E|------------------------------------------------------------------------------|


************************************

| /   slide up
| h   hammer-on
| p   pull-off
| ~   vibrato
| b   Bend
| pbr Pre-bend release

************************************
Добавлено: 03.08.2015
Другие материалы по этой песне:
  • Аккорды и текст

Страница создана 03.08.2015
http://primanota.ru/reece-mastin/she-calls-this-love-chords.htm
Привет, Гость.
Предлагаем пройти революционный курс по гитаре.
Подарок от PrimaNota.Ru, забирай!