PrimaNota.ru - самый крупный в мире бесплатный архив песенных текстов, аккордов, табулатур и нот


Redline - King Of The Mountain Tt Style - таба, видео

Регистрация Запомнить меня
Войти через:  Facebook Google Twitter Vk Yandex Mail.ru

Redline - King Of The Mountain Tt Style - таба, видео

Печатать
Просмотров: 34
-------------------------------------------------------------------------------
                KING OF THE MOUNTAIN TT STYLE - Redline
-------------------------------------------------------------------------------
Tabbed by: Sturginaldo

Tuning: Standard

Intro: (it is also the chorus riff)
Palm mute E string only
Bend release bend 1/4 step
Play this riff 4 times

e|---------------------------------------------------------------------------|
B|---------------------------------------------------------------------------|
G|--------1------------3----------3brb---1--3-1------------------------------|
D|--------1------------3----------3brb---1--3-1------------------------------|
A|---------------------------------------------------------------------------|
E|-1-1-1---------1-1-1------1-1-1--------------------------------------------|


Verse:

Palm mute the F5 power chord only
e|---------------------------------------------------------------------------|
B|---------------------------------------------------------------------------|
G|---------------------------------------------------------------------------|
D|------------8--------------------------------------------------------------|
A|-6----------6---------------3333333333333333-------------------------------|
E|-4----------6---------------1111111111111111-------------------------------|
     Pulling fast, head down Bray



************************************

| /   slide up
| \   slide down
| h   hammer-on
| p   pull-off
| ~   vibrato
| +   harmonic
| x   Mute note
| b   Bend
| pb  Pre-bend
| br  Bend release
| pbr Pre-bend release
| brb Bend release bend

************************************
Добавлено: 22.08.2014
Другие материалы по этой песне:
  • Аккорды и текст

Страница создана 22.08.2014
http://primanota.ru/redline/king-of-mountain-tt-style-chords.htm
Привет, Гость.
Предлагаем пройти революционный курс по гитаре.
Подарок от PrimaNota.Ru, забирай!