PrimaNota.ru - самый крупный в мире бесплатный архив песенных текстов, аккордов, табулатур и нот


Redlight King - Something For The Pain (album) - таба, видео

Регистрация Запомнить меня
Войти через:  Facebook Google Twitter Vk Yandex Mail.ru

Redlight King - Something For The Pain (album) - таба, видео

Печатать
Просмотров: 53
                             REDLIGHT KING
                         Something for the Pain

1.SOMETHING FOR THE PAIN

TUNING: ACOUSTIC-STANDARD
        ELECTRIC 1-STANDARD
        ELECTRIC 3-DROP D



 INTRO
  ACOUSTIC
E|--------------------------------------------------|
B|--------------------------------------------------|
G|--------------------------------------------------|
D|--------------------------------------------------| --(PLAYED THROUGHOUT
A|--------------------------------------------------|    SONG)
E|--3-3-3-3-3-3-3-3-8-8-8-8-6-6-6-6-6-6-6-6-1-1-1-1-|
    . . . . . . . . . . . . . . . . . . . . . . . .

CHORUS

  ELECTRIC 2
E|---------|
B|---------|
G|---------|
D|-1-----3-|  pause then play it again
A|-1-----3-|
D|-1-----3-|

POST
  ELECTRIC 1
E|--------------|
B|--------------|
G|--------------|
D|--------------| X3
A|-5h6r5h6r5----|
E|----------8-6-|
  ELECTRIC 2
E|------|
B|----6-|
G|-5-7--|
D|------|
A|------|
D|------|


PLAY INTRO

  ELECTRIC 2
E|---------------|
B|---6-8-------6-|
G|-7-------5-7---|
D|---------------|  x2
A|---------------|
D|---------------|

SLIDES INTO CHORUS
  ELECTRIC 1
E|-----|
B|-3/6-|
G|-----|
D|-----|
A|-----|
E|-----|


  ELECTRIC 2    ELECTRIC 1
(full strumming
and distortion)
E|---------     ------------|
B|---------     -6\3---3/6--|
G|---------     ------------| X2 AT THE END  ELECTRIC 1 SLIDES 6/3
D|-1-----3-     ------------|
A|-1-----3-     ------------|
D|-1-----3-     ------------|


BRIDGE


ELECTRIC 1
E|----------------|
B|----------------|
G|----------------|
D|----------------| (PLAYS THROUGHOUT BRIDGE)
A|-5h6r5h6r5------|
E|----------8-6---|

ELECTRIC 2
E|-------------------------|
B|-------------------------|
G|-------------------------|
D|-33-1-33-1-33-1-33-11111-|
A|-33-1-33-1-33-1-33-11111-|
D|-33-1-33-1-33-1-33-11111-|

SLIDES INTO CHORUS
  ELECTRIC 1
E|-----|
B|-3/6-|
G|-----|
D|-----|
A|-----|
E|-----|

                                (PLAYS FOR THE REST OF THE SONG)
  ELECTRIC 2    ELECTRIC 1
(full strumming
and distortion)
E|---------     ------------|
B|---------     -6\3---3/6--|
G|---------     ------------| X2 AT THE END OF THE CHORUS
D|-1-----3-     ------------|    ELECTRIC 1 SLIDES 6/3
A|-1-----3-     ------------|
D|-1-----3-     ------------|

2.BULLET IN MY HAND

TUNING:DROP D

INTRO

Electric 1

E|-8-1111--6h8-|
B|-------------|
G|-------------|
D|-------------|
A|-------------|
D|-------------|

VERSE
(no playing)

PRE-CHORUS

Electric 2

E|------|
B|------|
G|------|
D|-1--3-|
A|-1--3-|
D|-1--3-|
   *  *

CHORUS

Electric 1
(only 3rd and 4th times of the E2 chorus you play this)
E|-8-1111--6h8-|
B|-------------|
G|-------------|
D|-------------|
A|-------------|
D|-------------|

Electric 2

E|--------------------------|
B|--------------------------|
G|-----------------------10-|
D|-8h10----/13-13-13\8-8-10-|
A|-8h10-x4-/13-13-13\8-8-8--|
D|-8h10----/13-13-13\8-8----|

VERSE

CHORUS

POST (only for this chorus)

Electric 1+2

E|-------|
B|-------|
G|-----5-|
D|-1-3-5-|
A|-1-3-3-|
D|-1-3---|

BRIDGE

Electric 1
(pick)
                     (pattern)
E|-----------|       |-------|
B|-----------|       |-------|
G|-----------|       |-------|
D|-10-13-8-3-| ----> |-----x-|
A|-10-13-8-3-|       |---x---|
D|-10-13-8-3-|       |-x-----|

THEN....

Electric 2

E|------------|
B|------------|
G|------------|
D|-3----xxxxx-|
A|-3----xxxxx-|
D|-3----xxxxx-|
   *
THEN...

Electric 1

E|--------------------------------------------|
B|--------------------------------------------|
G|-3/5----8-8-8\-3-10-3/5----8----10-12-15-17-|
D|-x-x-x3-x-x-x--x-x--x-x-x3-x-x3-x--x--x--x--|
A|-1/3----6-6-6\-1-8--1/3----6----8--10-13-15-|
D|--------------------------------------------|

Electric 2

E|--------------------------|
B|--------------------------|
G|-----------------------10-|
D|-8h10----/13-13-13\8-8-10-|
A|-8h10-x4-/13-13-13\8-8-8--|
D|-8h10----/13-13-13\8-8----|

CHORUS

3.OLD MAN

TUNING:STANDARD

LD MAN

D
He didnt have much
F
A pair of hard working hands
C
Everything that I needed
G
I got it from the old man
D
With a nine second dream
F
He drove the Redlight Bandit
C
And the grease on his hands
F
Was the way he commanded
D
And the life he demanded
F
It kept us all in a struggle
C
When he ruled with his fist
G
It kept us all out of trouble
D
Even though he would leave
F
He wore his heart on his sleeve
C
And by the way that he walked
F
He taught me how to believe

D       Am7
Old man look at my life
Em7       G
Take a look, take a look
D       Am7
Old man look at my life
Em7       G
cause I'm a lot like you
D/F#      Am7             G
Old man, old man take a look at my life
D/F#      Am7             G
Old man, old man take a look at my life
F     C        D
cause I'm a lot like you




D
Growin' up at the track
F
He had a reason for being fast
C
His heart felt like breaking
G
He'd look right up at the ceiling and
D
Start again,
F
never breathe a word of his loss
C
Cause it's not about winning
G
It's the rivers you cross
D
And the pain that you feel
F
Could be the fuel that you use
C
And if you're in need of direction
G
Be it the path that you choose
D
My old man is a legend
F
He cast a shadow so great
C
I think of how he is watchin'
G
With every move that I make

D       Am7
Old man look at my life
Em7       G
Take a look, take a look
D       Am7
Old man look at my life
Em7       G
cause I'm a lot like you
D/F#      Am7             G
Old man, old man take a look at my life
D/F#      Am7             G
Old man, old man take a look at my life
F     C        D
cause I'm a lot like you

Now there's no slowin' down
There's only settin' the pace
No more dreams to be stolen
Just the right ones to chase
You've been through the worst
Now you know who to trust
Leave them something behind
Before the ashes and dust

Old man look at my life
Old man look at my life
Old man, old man take a look at my life
cause I'm a lot like you
Old man, old man take a look at my life
cause I'm a lot like you
Old man, old man take a look at my life
Take a look, take a look
Old man, old man take a look at my life
cause I'm a lot like you
Old man, old man take a look at my life
Take a look, take a look
Old man, old man take a look at my life
cause I'm a lot like you

4.CITY LIFE

TUNING:DROP D

INTRO

Electric 1

E|-------------|
B|-------------|
G|-----------9-|
D|-12-11-11--9-|
A|-------9-----|
D|-------------|

VERSE (play intro)

CHORUS

Electric 2+3

E|------------|
B|------------|
G|------------|
D|-9--7--4--2-|
A|-9--7--4--2-|
D|-9--7--4--2-|

Electric 1/Synth
(played in the background)
E|-----|
B|-----|
G|-16--|
D|-x---|
A|-14--|
D|-----|

VERSE

CHORUS

BRIDGE

Electric 1

E|-------------------------|
B|-------------------------|
G|-9-9\7/9-9-----4-4-x-4-4-|
D|-x-x-x-x-x-----x-x-2-x-x-|
A|-7-7\5/7-7-----2-2-0-2-2-|
D|-------------------------|

Electric 2+3

E|--------|
B|--------|
G|--------|
D|-2--5-7-|
A|-2--5-7-|
D|-2--5-7-|
   *  * *

SOLO

Electric 1

E|------------------------------------------------------|
B|-12b-12b-12b-12/14b-14b-14b---------------------------|
G|----------------------------11b-11b-11b-9b-7----------|
D|---------------------------------------------11-9-7-9-|
A|------------------------------------------------------|
D|------------------------------------------------------|

CHORUS

Add near the end...

Electric 3

E|----------------------|
B|----------------------|
G|------------------7---|
D|---------7-99-7-9---9-|
A|-----7----------------|
D|-7-9---9--------------|

5.COMEBACK

TUNING:DROP D



  Guitar 1
E|--6p5h6-3-6p5h6-3-6p5h6-3-6p5h6-8-6p5h6-3-6p5h6-3-6p5h6p5-3b|
B|------------------------------------------------------------|
G|------------------------------------------------------------|
D|------------------------------------------------------------|
A|------------------------------------------------------------|
D|------------------------------------------------------------|


    Guitar 1
E|--6p5h6-3-6p5h6-3-6p5h6-3-6p5h6-8-6p5h6-3-6p5h6-3-6p5h6-3-    --6p5h6p5-3b|
B|----------------------------------------------------------    ------------|
G|----------------------------------------------------------  2X------------|
D|----------------------------------------------------------    ------------|
A|----------------------------------------------------------    ------------|
D|----------------------------------------------------------    ------------|

    Guitar 2
E|----------------------------------------------------------------------|
B|----------------------------------------------------------------------|
G|-------------3333333--------------------------------3333333---------5-|
D|--xx-5555555-3333333-3333333-10101010101010-5555555-3333333-3333333-5-|  2X
A|--xx-5555555-1111111-3333333-10101010101010-5555555-1111111-3333333-3-|
D|--xx-5555555---------3333333-10101010101010-5555555---------3333333---|

   Guitar 2  ("Many times i walk the line")
E|------------------------------|
B|------------------------------|
G|--5-555m-3-333m--------5-555m-|
D|--5-555m-3-333m-3-333m-5-555m-|  2X
A|--5-555m-1-111m-3-333m-3-333m-|
D|--5-555m--------3-333m--------|

    Guitar 1  ("I no how it feels to have to start again")
E|--3h6p5h6-3h6p5h6-3h6p5h6-7-6p5h6    -3h6p5h6-3h6p5h6-3b|
B|---------------------------------    -------------------|
G|---------------------------------    -------------------|
D|---------------------------------  3X-------------------|
A|---------------------------------    -------------------|
D|---------------------------------    -------------------|

   Guitar 2
E|-------------|
B|-------------|
G|-----3-----5-|
D|--5--3--3--5-|
A|--5--1--3--3-|
D|--5-----3----|

    Guitar 1  ("I'm gunna make a comeback")
E|----6p5h6-3-6p5h6-3-6p5h6-3-6p5h6-8-6p5h6-3-6p5h6-3-|
B|----------------------------------------------------|
G|----------------------------------------------------|
D|----------------------------------------------------|  2X
A|----------------------------------------------------|
D|----------------------------------------------------|

    Guitar 2
E|-----------------------------------------    -----|
B|-----------------------------------------    -----|
G|----------3333333------------------------    -----|
D|--5555555-3333333-3333333-10101010101010-  2X--10-|
A|--5555555-1111111-3333333-10101010101010-    --10-|
D|--5555555---------3333333-10101010101010-    --10-|

    Guitar 2  ("Look into my eyes and see")
E|------------------------------10-|
B|------------------------------10-|
G|--5-555m-3-333m--------5-555m----|
D|--5-555m-3-333m-3-333m-5-555m----|  2X
A|--5-555m-1-111m-3-333m-3-333m----|
D|--5-555m--------3-333m-----------|


   Guitar 1  (I no how it feels to haven't got a friend")
E|--3h6p5h6-3h6p5h6-3h6p5h6-7-6p5h6    -3h6p5h6-3h6p5h6-3b|
B|---------------------------------    -------------------|
G|---------------------------------    -------------------|
D|---------------------------------  3X-------------------|
A|---------------------------------    -------------------|
D|---------------------------------    -------------------|

   Guitar 2
E|-------------|
B|-------------|
G|-----3-----5-|
D|--5--3--3--5-|
A|--5--1--3--3-|
D|--5-----3----|



    Guitar 1  ("I'm gunna make a comeback")
E|----6p5h6-3-6p5h6-3-6p5h6-3-6p5h6-8-6p5h6-3-6p5h6-3-|
B|----------------------------------------------------|
G|----------------------------------------------------|
D|----------------------------------------------------|
A|----------------------------------------------------|
D|----------------------------------------------------|

    Guitar 2
E|-----------------------------------------|
B|-----------------------------------------|
G|----------3333333------------------------|
D|--5555555-3333333-3333333-10101010101010-|
A|--5555555-1111111-3333333-10101010101010-|
D|--5555555---------3333333-10101010101010-|

    Guitar 1 ("Risk it all imma risk it all")
E|--6p5h6-3-6p5h6-3-6p5h6-3-6-8-10-|
B|---------------------------------|
G|---------------------------------|
D|---------------------------------|  2X
A|---------------------------------|
D|---------------------------------|

    Guitar 2
E|-----------------------------------------------   ----|
B|-----------------------------------------------   ----|
G|----------3333333------------------------------   ----|
D|--5555555-3333333-3-3-3m-3-3-3m-10101010101010- 2X-10-|
A|--5555555-1111111-3-3-3m-3-3-3m-10101010101010-   -10-|
D|--5555555---------3-3-3m-3-3-3m-10101010101010-   -10-|

    Guitar 1
E|----------|
B|----------|
G|----------|
D|--17-12-8-|
A|----------|
D|----------|

    Guitar 2
E|----|
B|----|
G|----|
D|--5-|
A|--5-|
D|--5-|


    Guitar 2  ("The lights on")
E|----------|
B|----------|
G|----3---5-|
D|--5-3-3-5-|
A|--5-1-3-3-|
D|--5---3---|


    Guitar 2  ("I'm gunna make a comeback")
E|-----------------------------------------|
B|-----------------------------------------|
G|----------3333333------------------------|
D|--5555555-3333333-3333333-10101010101010-|
A|--5555555-1111111-3333333-10101010101010-|
D|--5555555---------3333333-10101010101010-|


 Guitar 1  ("I'm gunna make a comeback")
E|----6p5h6-3-6p5h6-3-6p5h6-3-6p5h6-8-6p5h6-3-6p5h6-3-|
B|----------------------------------------------------|
G|----------------------------------------------------|
D|----------------------------------------------------|  4X
A|----------------------------------------------------|
D|----------------------------------------------------|

    Guitar 2
E|-----------------------------------------|
B|-----------------------------------------|
G|----------3333333------------------------|
D|--5555555-3333333-3333333-10101010101010-|  4X
A|--5555555-1111111-3333333-10101010101010-|
D|--5555555---------3333333-10101010101010-|

    Guitar 2  ("Imma come back")
E|----------|
B|----------|
G|----3---5-|
D|--5-3-3-5-|
A|--5-1-3-3-|
D|--5---3---|

6.DRIVIN TO KALIFORNIA

TUNING:DROP D

INTRO

Electric 1
Clean

E|-----------------|
B|-17--------------|
G|-----16--16--19--|
D|-----------------|
A|-----------------|
D|-----------------|

Electric 2
Clean

E|--------|      |----------|
B|--------|      |----------|
G|--------| ---> |----------|
D|-5-5-5--|      |---x---x--|
A|-5-5-5--|      |--x-x---x-|
D|-5-4-2--|      |-x---x----|

VERSE

Electric 1
Clean

E|-------------------|
B|-16/12b------------|
G|-------------------|
D|------------12/17b-|
A|-------------------|
D|-------------------|


Electric 2
Clean

E|--------|      |----------|
B|--------|      |----------|
G|--------| ---> |----------|
D|-5-5-5--|      |---x---x--|
A|-5-5-5--|      |--x-x---x-|
D|-5-4-2--|      |-x---x----|

CHORUS

Electric 2
Clean

E|--------|      |----------|    ---------|
B|--------|      |----------|    --17\12b-|
G|--------| ---> |----------|    ---------|
D|-5-5-5--|      |---x---x--| +  ---------|
A|-5-5-5--|      |--x-x---x-|    ---------|
D|-5-4-2--|      |-x---x----|    ---------|

Electric 1
Clean

E|---------|
B|---------|
G|---------|
D|-5--4--2-|
A|-5--4--2-|
D|-5--4--2-|
   *  *  *
VERSE

Electric 2
Clean

E|--------|      |----------|
B|--------|      |----------|
G|--------| ---> |----------|
D|-5-5-5--|      |---x---x--|
A|-5-5-5--|      |--x-x---x-|
D|-5-4-2--|      |-x---x----|

Electric 1
Clean

E|--------|
B|--------|
G|--------|
D|-12/17b-|
A|--------|
D|--------|

CHORUS

BRIDGE

Electric 1
Mild Distortion

E|-----------------|
B|-----------------|
G|-----------------|
D|-12/17b----19\16-|
A|-----------------|
D|-----------------|


Electric 2
Distortion

E|----------|
B|----------|
G|----------|
D|-10--9--7-|  (strum)
A|-10--9--7-|
D|-10--9--7-|

INTRO

CHORUS

      E|-------|
with  B|-------|
      G|-12/16-|
      D|-------|
      A|-------|
      D|-------|

7.BUILT TO LAST

TUNING:DROP D

INTRO

Piano/Electric 1

E|-13-10-12-10-|
B|-------------|
G|-------------|
D|-------------|
A|-------------|
D|-------------|

Electric 2

E|----------|
B|----------|
G|----------|
D|-12--8--3-|
A|-12--8--3-|
D|-12--8--3-|

Synth/Electric 3

E|-------------|
B|-------------|
G|-7-15-14-9-7-|
D|-x-x--x--x-x-|
A|-5-13-12-7-5-|
D|-------------|

VERSE (part 1)

(just bass)

VERSE (part 2)

Piano/Electric 1

E|-13-10-12-10-|
B|-------------|
G|-------------|
D|-------------|
A|-------------|
D|-------------|

Electric 2

E|----------|
B|----------|
G|----------|
D|-12--8--3-|
A|-12--8--3-|
D|-12--8--3-|

CHORUS

Synth/Electric 3

E|-------------|
B|-------------|
G|-7-15-14-9-7-|
D|-x-x--x--x-x-|
A|-5-13-12-7-5-|
D|-------------|

Electric 2

E|----------|
B|----------|
G|----------|
D|-12--8--3-|
A|-12--8--3-|
D|-12--8--3-|

POST CHORUS

Electric 1

E|--------------|
B|-13\10--13\10-|
G|--------------|
D|--------------|
A|--------------|
D|--------------|

VERSE (part 1+2)

CHORUS

BRIDGE

(pretty much just bass)

CHORUS

8.UNDERGROUND

TUNING:DROP D

Intro

Electric 1
(palm mute with delay)                         (suggested positions)
E|------444------444-222------555------555-444-   --------------|
B|---------------------------------------------   --5--3--6--5--|
G|-6666-----6666---------7777-----7777---------   --6--4--7--6--|
D|-6666-----6666---------7777-----7777---------   --6--4--7--6--|
A|---------------------------------------------   --4--2--5--4--|
D|---------------------------------------------   --------------|

VERSE
(none unless you want to play the intro)

PRE-CHORUS

Electric 1
(palm mute with delay)                         (suggested positions)
E|------444------444-222------555------555-444-   --------------|
B|---------------------------------------------   --5--3--6--5--|
G|-6666-----6666---------7777-----7777---------   --6--4--7--6--|
D|-6666-----6666---------7777-----7777---------   --6--4--7--6--|
A|---------------------------------------------   --4--2--5--4--|
D|---------------------------------------------   --------------|

Electric 2

E|-------|
B|-------|
G|-------|
D|-7--11-|
A|-7--11-|
D|-7--11-|
   *  *

CHORUS

Electric 1+2

E|-------------------------|
B|-------------------------|
G|-------------------------|
D|-9-11-4-2--xxxx-9-11-4-2-|
A|-9-11-4-2--xxxx-9-11-4-2-|
D|-9-11-4-2--xxxx-9-11-4-2-|

INTRO

VERSE (play intro)

CHORUS

BRIDGE

Electric 2
                             end with...
E|------------------------|     -----|
B|------------------------|     -----|
G|------------------------|     -----|
D|-11111111----9999-7-6-2-|     --10-|
A|-11111111-x2-9999-7-6-2-|     --10-|
D|-11111111----9999-7-6-2-|     --10-|

2nd time play...

Electric 1

E|---------|
B|---------|
G|-6--8-9--|
D|-x--x-x--|
A|-4--6-7--|
D|---------|

CHORUS (variation)

Electric 1

E|--------------------|
B|--------------------|
G|-4-6-11-9-----------|
D|-x-x-x--x-----------|
A|-2-4-9--7-----------|
D|----------pickslide-|

CHORUS

OUTRO CHORUS WITH...

Electric 1

E|-----------|
B|-99-77-----|
G|-------6-9-|
D|-----------|
A|-----------|
D|-----------|

9.LITTLE DARLIN

TUNING:DROP D

INTRO

Electric 3
(repeatedly)
E|-10r8h10-|
B|---------|
G|---------|
D|---------|
A|---------|
D|---------|

Electric 2

E|------|
B|------|
G|------|
D|-3--0-|
A|-3--0-|
D|-3--0-|

Electric 1

E|----------------------|
B|-13-------13----10----|
G|----12-10----12----10-|
D|----------------------|
A|----------------------|
D|----------------------|

VERSE

Electric 2

E|------|
B|------|
G|------|
D|------|
A|------|
D|-3--0-|

PRE-CHORUS

Electric 2

E|------|
B|------|
G|------|
D|-3--0-|
A|-3--0-|
D|-3--0-|

CHORUS

Electric 2

E|------|
B|------|
G|------|
D|-3--0-|
A|-3--0-|
D|-3--0-|

Acoustic/Clean= No capo, just play F and D

Then....

Electric 1

E|----------------------|
B|-13-------13----10----|
G|----12-10----12----10-|
D|----------------------|
A|----------------------|
D|----------------------|

VERSE

CHORUS

BRIDGE

Electric 2

E|----------------------------|
B|----------------------------|
G|----------------------------|
D|-3----77-10--12----0----3-0-|
A|-3-X6-77-10--12-x8-0-x8-3-0-|
D|-3----77-10--12----0----3-0-|

CHORUS

OUTRO

Play Chorus with...

Electric 1

E|-----------------------------------------------|
B|-11r10h11r10-8----------11r10h11r10-8----10/13-|
G|---------------10-12-10---------------10-------|
D|-----------------------------------------------|
A|-----------------------------------------------|
D|-----------------------------------------------|

10.PAST THE GATES

TUNING:STANDARD

INTRO


  ELECTRIC 2
E|----------|
B|----------|
G|--5-8-----|
D|--5-8-6-3-| x1
A|--3-6-6-3-|
E|------4-1-|


  ELECTRIC 1
E|------|
B|--11b-|
G|------|
D|------|
A|------|
E|------|


    VERSE

  ELECTRIC 2
E|----------|
B|----------|
G|--5-8-----|
D|--5-8-6-3-| (strum once throughout verse)
A|--3-6-6-3-|
E|------4-1-|

  ELECTRIC 1
E|-------------------------|
B|-16-15-11----------------|
G|----------13-12----------|
D|------------------15-13--|
A|-------------------------|
E|-------------------------|

  PRE-CHORUS

  ELECTRIC 2
E|------|
B|------|
G|------|
D|-6--8-|
A|-6--8-|
E|-4--6-|

    CHORUS

  ELECTRIC 2
E|----------|
B|----------|
G|--5-8-----|
D|--5-8-6-3-|
A|--3-6-6-3-|
E|------4-1-|

  ELECTRIC 1
  (optional)
E|-----------------------  ------------------------------------|
B|-----------------------  ------------------------------------|
G|-8----5-8-5--8----5-8--  -5-8----5-8-5-10-12----15---8----10-|
D|-x-X3-x-x-x--x-X3-x-x--  -x-x-X3-x-x-x-x--x--X6-x-X6-x-X6-x--|
A|-6----3-6-3--6----3-6--  -3-6----3-6-3-8--10----13---6----8--|
E|-----------------------  ------------------------------------|

    POST

  ELECTRIC 1
E|---------|
B|---------|
G|-8-7-8---|
D|-------5-| X2
A|---------|
E|---------|


    VERSE

  ELECTRIC 2
E|----------|
B|----------|
G|--5-8-----|
D|--5-8-6-3-| (full strums)
A|--3-6-6-3-|
E|------4-1-|

  PRE-CHORUS

  ELECTRIC 2
E|------|
B|------|
G|------|
D|-6--8-|
A|-6--8-|
E|-4--6-|


    CHORUS

  ELECTRIC 2
E|----------|
B|----------|
G|--5-8-----|
D|--5-8-6-3-|
A|--3-6-6-3-|
E|------4-1-|

  ELECTRIC 1
  (optional)
E|-----------------------  ------------------------------------|
B|-----------------------  ------------------------------------|
G|-8----5-8-5--8----5-8--  -5-8----5-8-5-10-12----15---8----10-|
D|-x-X3-x-x-x--x-X3-x-x--  -x-x-X3-x-x-x-x--x--X6-x-X6-x-X6-x--|
A|-6----3-6-3--6----3-6--  -3-6----3-6-3-8--10----13---6----8--|
E|-----------------------  ------------------------------------|


    SOLO (sort of)
  ELECTRIC 1
E|-------------------------------  --------------------------|
B|-13b---11///----13-11-13-11///-  -8-88-7--8-88-7-8-88-7/10-|
G|-------------------------------  --------------------------|
D|-------------------------------  --------------------------|
A|-------------------------------  --------------------------|
E|-------------------------------  --------------------------|


E|--------------------------------------------------------|
B|--------------------------------------------------------|
G|-8-7-8---8-7-8--8-7-8-------8-7-8--8-7-8b/10-8-7-8------|
D|-------5------5------585858------5----------------5-3-1-|
A|--------------------------------------------------------|
E|--------------------------------------------------------|

   OUTRO

 ELECTRIC 2
E|----------|
B|----------|
G|--5-8-----|
D|--5-8-6-3-| (single strums)
A|--3-6-6-3-|
E|------4-1-|

  ELECTRIC 1
E|-----------------------|
B|-13-11-13-X5--15-14-13-|
G|-----------------------|
D|-----------------------|
A|-----------------------|
E|-----------------------|

11.WHEN THE DUST SETTLES DOWN

TUNING:STANDARD

   INTRO
  ACOUSTIC
  (second time no single 9)
E|--------------------------------------------------------|
B|--------------------------------------------------------|
G|--------------------------------------------------------|
D|--9-9-9-9-9-9-9-9-6-6-6-6-6-6-6-2-2-2-2-2-2-2-2-2-2-2-2-| x2
A|--9-9-9-9-9-9-9---6-6-6-6-6-6-6-2-2-2-2-2-2-2-2-2-2-2-2-|
E|--7-7-7-7-7-7-7---4-4-4-4-4-4-4-0-0-0-0-0-0-0-0-0-0-0-0-|


  Electric
E|----------------------------------|
B|----------------------------------|
G|----------------------------------|
D|-9h11r9\13-------9-13-11-9b\11----|
A|-------------------------------11-|
E|----------------------------------|

   VERSE
  ACOUSTIC
E|-------------------------------------------------------|
B|-------------------------------------------------------|
G|-------------------------------------------------------|
D|--9-9-9-9-9-9-9--6-6-6-6-6-6-6-2-2-2-2-2-2-2-2-2-2-2-2-| x2
A|--9-9-9-9-9-9-9--6-6-6-6-6-6-6-2-2-2-2-2-2-2-2-2-2-2-2-|
E|--7-7-7-7-7-7-7--4-4-4-4-4-4-4-0-0-0-0-0-0-0-0-0-0-0-0-|

  ELECTRIC 2 (as bass)
E|-------|
B|-------|
G|-------|
D|-------|
A|-2-----|
E|---4-0-|

  ELECTRIC
E|-----------------------------------------|
B|-----------------------------------------|
G|-----------------------------------------|
D|----9-----------------13-13-13-11-9-11---|
A|-11--9--9h11--9-11-9------------------11-|
E|-----------------------------------------|

   CHORUS

  ACOUSTIC
E|-----------------------------------------------------------------|
B|-----------------------------------------------------------------|
G|-----------------------------------------------------------------|
D|-9-9-9-9-9-9-9-9-6-6-6-6-6-6-6-6-1-1-1-1-1-1-1-1-4-4-4-4-4-4-4-4-|
A|-9-9-9-9-9-9-9-9-6-6-6-6-6-6-6-6-1-1-1-1-1-1-1-1-4-4-4-4-4-4-4-4-|
E|-7-7-7-7-7-7-7-7-4-4-4-4-4-4-4-4-x-x-x-x-x-x-x-x-2-2-2-2-2-2-2-2-|


  ELECTRIC
E|----------        -----------------------------------------------------|
B|----------        -----------------------------------------------------|
G|----------        -----------------------------------------------------|
D|-9-9-8-11- x2 or  -9-9-9-9-9-9-9-9-9-9-9-9-9-9-9-9-8-8-8-8-11-11-11-11-|
A|----------        -x-x-x-x-x-x-x-x-x-x-x-x-x-x-x-x-x-x-x-x-x--x--x--x--|
E|----------        -7-7-7-7-7-7-7-7-7-7-7-7-7-7-7-7-6-6-6-6-9--9--9--9--|

  ELECTRIC 2 (as bass)
E|---------|
B|---------|
G|---------|
D|---------|
A|-2-2-1-4-|
E|---------|

   VERSE
  ACOUSTIC
E|-------------------------------------------------------|
B|-------------------------------------------------------|
G|-------------------------------------------------------|
D|--9-9-9-9-9-9-9--6-6-6-6-6-6-6-2-2-2-2-2-2-2-2-2-2-2-2-| x2
A|--9-9-9-9-9-9-9--6-6-6-6-6-6-6-2-2-2-2-2-2-2-2-2-2-2-2-|
E|--7-7-7-7-7-7-7--4-4-4-4-4-4-4-0-0-0-0-0-0-0-0-0-0-0-0-|

  ELECTRIC
E|-------------------------------------------|
B|-------------------------------------------|
G|---------------11/13-11--------------16-16-|
D|-9r8-------------------------14-13---------|
A|-----9/11----------------------------------|
E|-------------------------------------------|


 CHORUS

  ACOUSTIC
E|-----------------------------------------------------------------|
B|-----------------------------------------------------------------|
G|-----------------------------------------------------------------|
D|-9-9-9-9-9-9-9-9-6-6-6-6-6-6-6-6-1-1-1-1-1-1-1-1-4-4-4-4-4-4-4-4-|
A|-9-9-9-9-9-9-9-9-6-6-6-6-6-6-6-6-1-1-1-1-1-1-1-1-4-4-4-4-4-4-4-4-|
E|-7-7-7-7-7-7-7-7-4-4-4-4-4-4-4-4-x-x-x-x-x-x-x-x-2-2-2-2-2-2-2-2-|


  ELECTRIC
E|----------        -----------------------------------------------------|
B|----------        -----------------------------------------------------|
G|----------        -----------------------------------------------------|
D|-9-9-8-11- x2 or  -9-9-9-9-9-9-9-9-9-9-9-9-9-9-9-9-8-8-8-8-11-11-11-11-|
A|----------        -x-x-x-x-x-x-x-x-x-x-x-x-x-x-x-x-x-x-x-x-x--x--x--x--|
E|----------        -7-7-7-7-7-7-7-7-7-7-7-7-7-7-7-7-6-6-6-6-9--9--9--9--|

  ELECTRIC 2 (as bass)
E|---------|
B|---------|
G|---------|                              (play for the rest of the song)
D|---------|
A|-2-2-1-4-|
E|---------|

OUTRO TO PLAY WITH CHORUS

E|-------------------------|
B|-------------------------|
G|-------------------------|
D|-9-8-6---------9-8-6-----|
A|-------9-6-----------9---|
E|-----------------------9-|

12. REDEMPTION (Iron Man 3 Soundtrack)

TUNING:DROP D

INTRO

ELECTRIC 1

E|--------------------------|
B|-10-10-10-10-10-9----9-10-|
G|------------------10------|
D|--------------------------| (end on 10 on the G string)
A|--------------------------|
D|--------------------------|

ELECTRIC 2

E|-----------|
B|-----------|
G|-----------|
D|-12-10-3-5-|
A|-12-10-3-5-|
D|-12-10-3-5-|

VERSE

ELECTRIC 1
(hold and bend each one)
E|----------|
B|-18b--17b-|
G|----------|
D|----------|
A|----------|
E|----------|

CHORUS

ELECTRIC 1

E|----------------------|
B|-10-10-10-9-9-------9-|
G|--------------10-10---|
D|----------------------|
A|----------------------|
D|----------------------|

ELECTRIC 2

E|-----------|
B|-----------|
G|-----------|
D|-12-10-3-5-|
A|-12-10-3-5-|
D|-12-10-3-5-|

VERSE

ELECTRIC 2

E|-----------|
B|-----------|
G|-----------|
D|----10-----|
A|-12-10-----|
D|-12-10-3-5-|

CHORUS

LEAD INTO BRIDGE

ELECTRIC 2

E|--------|
B|--------|
G|--------|
D|-7-8-10-|
A|-7-8-10-|
D|-7-8-10-|

BRIDGE

ELECTRIC 1

E|-------------------------------------------------|
B|-------------------------------------------------|
G|-------10-------10-------9-------9------7------7-|
D|-12-14----12-14----10-12---10-12---7-10---7-10---|
A|-------------------------------------------------|
D|-------------------------------------------------|

 -----------------------------------|
 -----------------------------------|
 -------10-------10-------9-------9-|
 -12-14----12-14----10-12---10-12---|
 -----------------------------------|
 -----------------------------------|

ELECTRIC 2

E|--------------|
B|--------------|
G|--------------|
D|-8-7-0-3-8-10-|
A|-8-7-0-3-8-10-|
D|-8-7-0-3-8-10-|

INTRO

CHORUS

OUTRO

ELECTRIC 2

E|----------|
B|----------|
G|----------|
D|-7-8-10-0-|
A|-7-8-10-0-|
D|-7-8-10-0-|


                               END OF ALBUM
Добавлено: 11.06.2013
Другие материалы по этой песне:
  • Аккорды и текст

Страница создана 11.06.2013
http://primanota.ru/redlight-king/something-for-the-pain-album-chords.htm
Привет, Гость.
Предлагаем пройти революционный курс по гитаре.
Подарок от PrimaNota.Ru, забирай!