PrimaNota.ru - самый крупный в мире бесплатный архив песенных текстов, аккордов, табулатур и нот


Redlight King - Redemption - таба, видео

Регистрация Запомнить меня
Войти через:  Facebook Google Twitter Vk Yandex Mail.ru

Redlight King - Redemption - таба, видео

Печатать
Просмотров: 156
INTRO

ELECTRIC 1

E|--------------------------|
B|-10-10-10-10-10-9----9-10-|
G|------------------10------|
D|--------------------------| (end on 10 on the G string)
A|--------------------------|
D|--------------------------|

ELECTRIC 2

E|-----------|
B|-----------|
G|-----------|
D|-12-10-3-5-|
A|-12-10-3-5-|
D|-12-10-3-5-|

VERSE

ELECTRIC 1
(hold and bend each one)
E|----------|
B|-18b--17b-|
G|----------|
D|----------|
A|----------|
E|----------|

CHORUS

ELECTRIC 1

E|----------------------|
B|-10-10-10-9-9-------9-|
G|--------------10-10---|
D|----------------------|
A|----------------------|
D|----------------------|

ELECTRIC 2

E|-----------|
B|-----------|
G|-----------|
D|-12-10-3-5-|
A|-12-10-3-5-|
D|-12-10-3-5-|

VERSE

ELECTRIC 2

E|-----------|
B|-----------|
G|-----------|
D|----10-----|
A|-12-10-----|
D|-12-10-3-5-|

CHORUS

LEAD INTO BRIDGE

ELECTRIC 2

E|--------|
B|--------|
G|--------|
D|-7-8-10-|
A|-7-8-10-|
D|-7-8-10-|

BRIDGE

ELECTRIC 1

E|-------------------------------------------------
B|-------------------------------------------------
G|-------10-------10-------9-------9------7------7-
D|-12-14----12-14----10-12---10-12---7-10---7-10---
A|-------------------------------------------------
D|-------------------------------------------------

 -----------------------------------|
 -----------------------------------|
 -------10-------10-------9-------9-|
 -12-14----12-14----10-12---10-12---|
 -----------------------------------|
 -----------------------------------|

ELECTRIC 2

E|--------------|
B|--------------|
G|--------------|
D|-8-7-0-3-8-10-|
A|-8-7-0-3-8-10-|
D|-8-7-0-3-8-10-|

INTRO

CHORUS

OUTRO

ELECTRIC 2

E|----------|
B|----------|
G|----------|
D|-7-8-10-0-|
A|-7-8-10-0-|
D|-7-8-10-0-|
Добавлено: 02.09.2013
Другие материалы по этой песне:
  • Аккорды и текст

Страница создана 02.09.2013
http://primanota.ru/redlight-king/redemption-chords.htm
Привет, Гость.
Предлагаем пройти революционный курс по гитаре.
Подарок от PrimaNota.Ru, забирай!