PrimaNota.ru - самый крупный в мире бесплатный архив песенных текстов, аккордов, табулатур и нот


Redd Kross - One Chord Progression - таба, видео

Регистрация Запомнить меня
Войти через:  Facebook Google Twitter Vk Yandex Mail.ru

Redd Kross - One Chord Progression - таба, видео

Печатать
Просмотров: 59
One Chord Progression - Redd Kross [from the album "Show World"]
(Jeffrey McDonald, Steven McDonald, Eddie Kurdziel)
Tabbed by: Tania Taylor [saragon@ozemail.com.au]
Submitted by: Wes

Intro:

e -12------------
B ----12-11------
(harmonics)

Verse 1:
B   Bb       G#      C#
He, ..
  E                  B
I ..
B     Bb      G#        C#
In a ..
   E                B
We ..
        E            F#
Because ..
B      Bb        G#
Wonder ..
        E                          F#
Because ..

Verse 2:
B      Bb      G#            C#
Superstars ..
    E                  B
The ..
B           Bb         G#  C#
Sell ..
    E               B
And ..
        E            F#
Because ..
B      Bb        G#
Wonder ..
        E                          F#
Because ..

Chorus:
B                C#             E
He ..
B                C#             E
He ..
B                C#
He ..
E                 F#
Based ..


e -2---------2---------2---------------------------------------------
B -2---------2---------2---------------------------------------------
G -3---------3---------3---------------------------------------------
D -4---------4---------4----------6-9-9-6----------------------------
A -4------7--4---------4------7-9------------------------------------
E -2--6-7----2--7-6-2--2--6-7----------------------------------------


Solo:

                 b                   b
e --------------------------------------------------------------------
B --------------------------------------------------------------------
G --------------------------------------------------------------------
D -9-9----9----9-13-11-9-11----9-11-13-13-11-9-11-9-------------------
A -----11---11--------------11----------------------11-9-11-9---------
E ------------------------------------------------------------11-9-7--
                          b                   b  b  b  b
e --------------------------------------------------------------------
B -----------------------------------12----12-14-14-14-14-12\---------
G -----------------11-11-13\12-11-13----13----------------------------
D ----------9-9-13----------------------------------------------------
A --------9-----------------------------------------------------------
E -7-7-11-------------------------------------------------------------

            b                  b
e -------------------14-12-14/16-14-12----------------14-------14-----
B -12-12-12-14\12-12-------------------15-16-17-16-17----17-16----17-
G --------------------------------------------------------------------
D --------------------------------------------------------------------
A --------------------------------------------------------------------
E --------------------------------------------------------------------


                               b                 b
e---------------------------------------------------------------------
B-15-17-12-------12-12----------------------------------------------12
G----------------------14-11-11----------------------------------11---
D-------------------------------14-12-14-12-------14-12----15-14-------
A----------------------------------------------14-------14-------------
E--------------------------------------------14------------------------


e----------------------------
B----------------------------
G----------------------------
D-13-14-13-14-13-------------
A---------------14-13-14-13--
E----------------------------


End Chorus:
B                C#             E
He ..
B                C#             E
He ..
B
He ..
C#
He ..

E
He ..
B                C#
He ..
E                 F#
Based ..
F#
One ..
F#             B
One ..

     
Добавлено: 01.08.2013
Вам также может быть интересно:
Другие материалы по этой песне:
  • Аккорды и текст

Страница создана 01.08.2013
http://primanota.ru/redd-kross/one-chord-progression-chords.htm
Привет, Гость.
Предлагаем пройти революционный курс по гитаре.
Подарок от PrimaNota.Ru, забирай!