PrimaNota.ru - самый крупный в мире бесплатный архив песенных текстов, аккордов, табулатур и нот


Redbone - Witch Queen Of New Oleans - аккорды и текст, видео

Регистрация Запомнить меня
Войти через:  Facebook Google Twitter Vk Yandex Mail.ru

Redbone - Witch Queen Of New Oleans - аккорды и текст, видео

Печатать
Просмотров: 72
Witch Queen Of New Oleans
Redbone
Artist: Redbone
Song: Witch queen of New orleans
Tabbed by: DJ
7th Nov 2012

Tuning:Standard
CAPO: 3rd fret (sounds in key of Gm)

A simple version for acoustic guitar

This song about Marie Laveau paints her in an evil light,
but the famous Voodoo priestess was reported to be beautiful, benign,
and charitable. Although after her death, her daughter,
with the same name, cultivated more of a sinister persona.  

******************************************************************

   Em7           
|  /  /  /  / |  /  /  /  / |  /  /  /  / |  /  /  /  / |


  Em7                                           Asus2    Em7                
(Marie, Marie La- 'Voodoo' -veau)  She'll put a spell on you!
 Em7                                            Asus2    Em7                
(Marie, Marie La- 'Voodoo' -veau)  She'll put a spell on you!
 Em7                                                      
(Marie, Marie La- 'Voodoo' -veau)  
           Am7            B7                   Em7
She's the Witch Queen...(Ahhh!)...of New Or - leans, 
             Em7
Of New Or - leans!
         e|-----------------------------|-------------------------|
         B|----------0------------------|-------------------------|
         G|---0--h2-----0--2-----0------|-------------------------|
         D|-------------------2-----0---|------0------------------|
         A|-----------------------------|---2-----0--2-----0------|
         E|-----------------------------|---------------3-----0---|

Em7                        
I'm gonna tell you a story, strange as it now seems,
    Em7                                               A7        Em7
Of Zombie voodoo gris - gris, and the Witch Queen of New Or - leans,
     Em7
She lived in a world of magic, possessed by the Devil's skew,
        Em7
From a shack, near the swampland, made of mud - pile brick, 
     Em7               A7    Em7
Ma - rie stirred her witch's brew!


  Em7                                           Asus2    Em7                
(Marie, Marie La- 'Voodoo' -veau)  She'll put a spell on you!
 Em7                                            Asus2    Em7                
(Marie, Marie La- 'Voodoo' -veau)  She'll put a spell on you!
 Em7                                                      
(Marie, Marie La- 'Voodoo' -veau)  
           Am7            B7                   Em7
She's the Witch Queen...(Ahhh!)...of New Or - leans, 
             Em7
Of New Or - leans!
           e|-----------------------------------|-------------------------|
           B|-----------------------------------|-------------------------|
           G|-----------------------------------|-------------------------|
           D|---------------------------2-p0----|-----0-------------------|
           A|-5p-2-5p-2-5p-2-5p-2-5p-2-------5--|--2-----0--2-----0-------|
           E|-----------------------------------|--------------3-----0----|

Em7                    
Dime or a nickel, anyone could buy...voodoo of any kind,
          Em7                                                   A7        Em7
She had potions & lotions, herbs & tanna leaves, guaranteed to blow your mind,
 Em7                                      
Early one morning, into murky swamp dew, vanished Marie with hate in her eye,
               Em7                                              A7    Em7
Though she'll never return, all the Cajuns knew, a Witch Queen never dies! 


  Em7                                           Asus2    Em7                
(Marie, Marie La- 'Voodoo' -veau)  She'll put a spell on you!
 Em7                                            Asus2    Em7                
(Marie, Marie La- 'Voodoo' -veau)  She'll put a spell on you!
 Em7                                                      
(Marie, Marie La- 'Voodoo' -veau)  
           Am7            B7                   Em7
She's the Witch Queen...(Ahhh!)...of New Or - leans, 
             Em7
Of New Or - leans!
         e|-----------------------------|-------------------------|
         B|----------0------------------|-------------------------|
         G|---0--h2-----0--2-----0------|-------------------------|
         D|-------------------2-----0---|------0------------------|
         A|-----------------------------|---2-----0--2-----0------|
         E|-----------------------------|---------------3-----0---|


  Em7                                           Asus2    Em7                
(Marie, Marie La- 'Voodoo' -veau)  She'll put a spell on you!
 Em7                                            Asus2    Em7                
(Marie, Marie La- 'Voodoo' -veau)  She'll put a spell on you!
 Em7                                                      
(Marie, Marie La- 'Voodoo' -veau)  
           Am7            B7                   Em7
She's the Witch Queen...(Ahhh!)...of New Or - leans, 

**************************************************************************

Chords relative to capo

Em7    =  022030
Asus2  =  x02200
Am7    =  x02010    
B7     =  x24242   


| h  hammer-on
| p  pull-off

==========================================================================
Добавлено: 06.11.2013
Другие материалы по этой песне:
  • Аккорды и текст

Страница создана 06.11.2013
http://primanota.ru/redbone/witch-queen-of-new-oleans-chords.htm
Привет, Гость.
Предлагаем пройти революционный курс по гитаре.
Подарок от PrimaNota.Ru, забирай!