PrimaNota.ru - самый крупный в мире бесплатный архив песенных текстов, аккордов, табулатур и нот


Red - Who We Are - текст песни, таба, видео

Регистрация Запомнить меня
Войти через:  Facebook Google Twitter Vk Yandex Mail.ru

Red - Who We Are - текст песни, таба, видео

Печатать
Просмотров: 351
Artist: Red
Song: Who We Are
From the 2011 album, "Until We Have Faces".

Tuning: Drop B flat

Notes: There are two guitars in the verses, but nowhere else. For the first part of 
verse 1 there is only one guitar playing though. Just chose which part you want to play for 
the rest of the verse.

Intro Part 1 (Play 2x)
                            1st ending  2nd Ending
C |-------------------------|---------|--------|
G |--10--------------11-10--|---------|--------|
D#|---------10----12--------|-----10--|--10/7--|
A#|-----12-----12-----------|--12-----|--------|
F |-------------------------|---------|--------|
A#|-------------------------|---------|--------|

Intro Part 2
C |------------------------------------------------------------|
G |------------------------------------------------------------|
D#|--------------------------5-5-5-5-5-5-5-5-------------------|
A#|--7-0-3--3-3-3-3-3-3-3-3--5-5-5-5-5-5-5-5--5-5-5-5-5-5-5-5--|
F |--7-0-3--3-3-3-3-3-3-3-3--3-3-3-3-3-3-3-3--5-5-5-5-5-5-5-5--|
A#|--7-0-3--3-3-3-3-3-3-3-3-------------------5-5-5-5-5-5-5-5--|

C |--------------------------------------------------------------------|
G |--------------------------------------------------------------------|
D#|---------------------------------5-5-5-5-5-5-5-5--------------------|
A#|--7-0-3--3-3-0--0-0-0-0-0-0-0-0--5-5-5-5-5-5-5-5--5-5-5-5--8-8-7-7--|
F |--7-0-3--3-3-0--0-0-0-0-0-0-0-0--3-3-3-3-3-3-3-3--5-5-5-5--8-8-7-7--|
A#|--7-0-3--3-3-0--0-0-0-0-0-0-0-0-------------------5-5-5-5--8-8-7-7--|


Verse (Guitar 2) *Let ring* Play until chorus starts

C |--17-----------17--------------|
G |-----17-18-17-----17-18-20-17--|
D#|-------------------------------|
A#|-------------------------------|
F |-------------------------------|
A#|-------------------------------|

(Guitar 1) 0:47 Palm muted
(*) represents open note FOR VERSES ONLY

C |------------------------------------------------------------------------------|
G |------------------------------------------------------------------------------|
D#|------------------------------------------------------------------------------|
A#|--0-0-0-0-0-0-0-0--3-3-3-3-3-3-3-3--8-8-8-8-8-8-8-8--10-10-10-10-10-10-10-10--|
F |--0-0-0-0-0-0-0-0--3-3-3-3-3-3-3-3--8-8-8-8-8-8-8-8--10-10-10-10-10-10-10-10--|
A#|--0-0-0-0-0-0-0-0--3-3-3-3-3-3-3-3--8-8-8-8-8-8-8-8--10-10-10-10-10-10-10-10--|

C |----------------------------------------------------------------|
G |----------------------------------------------------------------|
D#|----------------------------------------------------------------|
A#|--0-0-0-0-0-----3-3-3-3-3-----5-5-5-5-5--------7-7-7-7-8h10-10--|
F |--0-0-0-0-0-----3-3-3-3-3-----5-5-5-5-5--------7-7-7-7-8h10-10--|
A#|--0-0-0-0-0-887-3-3-3-3-3-887-5-5-5-5-5-7h8/10-7-7-7-7-8h10-10--|
               ***           ***           * * *          *  *  *
(Note: You can also play the first two "887"s as "110"s on the F string, if you find 
that easier.}

Chorus - Play Intro Part 2 twice

Verse 2 - Same as Verse 1, except Guitar 1 comes in at the beginning of the verse, just 
play the first line of verse 1 3x then go to the second line.

Chorus

Bridge 2x

C |----------------------------------------------------------|
G |----------------------------------------------------------|
D#|----------------------------------------------------------|
A#|--0-0-5-7-8-0--0--5-7-0-8-10-8-0--0-5-7-8-0--3-3-3-1-1-1--|
F |--0-0-5-7-8-0--0--5-7-0-8-10-8-0--0-5-7-8-0--3-3-3-1-1-1--|
A#|--0-0-5-7-8-0--0--5-7-0-8-10-8-0--0-5-7-8-0--3-3-3-1-1-1--|

After the Bridge, go back to Intro Part 1, which leads into the chorus.

Chorus

Outro - Same as the Bridge riff but only play it once. Just add three extra B's to end 
the song!

Tab key
* - Open note ONLY FOR VERSES
h - Hammer on
/ - slide
Добавлено: 04.07.2012
Другие материалы по этой песне:
  • Аккорды и текст

Страница создана 04.07.2012
http://primanota.ru/red/who-we-are-chords.htm
Привет, Гость.
Предлагаем пройти революционный курс по гитаре.
Подарок от PrimaNota.Ru, забирай!