PrimaNota.ru - самый крупный в мире бесплатный архив песенных текстов, аккордов, табулатур и нот


Red - The Outside - текст песни, таба, видео

Регистрация Запомнить меня
Войти через:  Facebook Google Twitter Vk Yandex Mail.ru

Red - The Outside - текст песни, таба, видео

Печатать
Просмотров: 142
Song: The Outside
Artist: RED
Album: Until We Have Faces

Tuning: Drop A

Here's my tab for The Outside. Although I believe there's three guitars in the verse,
I've only tabbed two for simplicity. Also, it sounds to me like there is a second guitar
during the chorus, but I can't make it out so I've only tabbed one. If you like this, 
check out my other tabs from UWHF. I'm trying to submit one for Faceless, but for some reason
it's been denied...

Also, I remember Randy saying on facebook that this song is in Drop G#. Either my tuner
really sucks or he was wrong haha, feedback on that would be much appreciated :)

Key:
Hammer on: h
Pull off: p
Slide: s
Palm mute: *

Intro:
 B|----------------------------------|--------------------------|
F#|----------------------------------|--------------------------|
 D|----------------------------------|--------------------------|
 A|----------------------------------|--------------------------|
 E|--5-------------------------------|-5------------------------|
 A|----0-6-0-3-6-0-3-7-0-3-6-0-3-5-0-|---0-6-0-3-6-0-3-7-0-3-0--|

 B|----------------------------------|--------------------------|
F#|----------------------------------|--------------------------|
 D|----------------------------------|--------------------------|
 A|----------------------------------|--------------------------|
 E|--5-------------------------------|-5------------------------|
 A|----0-6-0-3-6-0-3-7-0-3-6-0-3-5-0-|---0-6-0-3-6-0-3-7-0-3-0--|

 B|------------------|-----------------|-----------------|-----------------|-----------------|
F#|------------------|-----------------|-----------------|-----------------|-----------------|
 D|------------------|-----------------|-----------------|-----------------|-----------------|
 A|--6---------------|-----------------|-6---------------|-6---------------|-----------------|
 E|--5-0-6-0-3-6-0-3-|-7-0-3-6-0-3-5-0-|-5-0-6-0-3-6-0-3-|-5-0-6-0-3-6-0-3-|-7-0-3-0--0-3-6--|
 A|----0-6-0-3-6-0-3-|-7-0-3-6-0-3-5-0-|---0-6-0-3-6-0-3-|---0-6-0-3-6-0-3-|-7-0-3-0--0-3-6--|

 B|------------------|-----------------|-----------------|-----------------|-----------------|
F#|------------------|-----------------|-----------------|-----------------|-----------------|
 D|------------------|-----------------|-----------------|-----------------|-----------------|
 A|--6---------------|-----------------|-6---------------|-6---------------|-----------------|
 E|--5-0-6-0-3-6-0-3-|-7-0-3-6-0-3-5-0-|-5-0-6-0-3-6-0-3-|-5-0-6-0-3-6-0-3-|-7-0-3-0--0---0--|
 A|----0-6-0-3-6-0-3-|-7-0-3-6-0-3-5-0-|---0-6-0-3-6-0-3-|---0-6-0-3-6-0-3-|-7-0-3-0--0---0--|

  Verse:
  GUITAR 1:
 B|--------------|
F#|--------------|
 D|--------------|
 A|--------------|
 E|--5-----------|
 A|----0-6-0-3-6-|

 B|--------------|
F#|--------------|
 D|--------------|
 A|--------------|
 E|--5-----------|
 A|----0-6-0-3-6-|

 B|-----------------|-----------------|----------------|------------------|
F#|-----------------|-----------------|----------------|------------------|
 D|-----------------|-----------------|----------------|------------------|
 A|-----------------|-----------------|----------------|------------------|
 E|--5--------------|-----------------|-5--------------|------------------|
 A|----0-6-0-3-6----|---0-3-6-0-3-5-0-|---0-6-0-3-6----|---0-3-0--0--0----|
 B|-----------------|-----------------|----------------|------------------|
F#|-----------------|-----------------|----------------|------------------|
 D|-----------------|-----------------|----------------|------------------|
 A|-----------------|-----------------|----------------|------------------|
 E|--5--------------|-----------------|-5--------------|------------------|
 A|----0-6-0-3-6----|---0-3-6-0-3-5-0-|---0-6-0-3-6----|---0-3-0----------|


 GUITAR 2: (low volume)
 B|-----------------|-----------------|----------------|----------------|
F#|-----------------|-----------------|----------------|----------------|
 D|-----------------|-----------------|----------------|----------------|
 A|-----------------|-----------------|----------------|----------------|
 E|--5--------------|-----------------|-5--------------|----------------|
 A|----0-6-0-3-6----|---0-3-6-0-3-5-0-|---0-6-0-3-6----|---0-3-0--0--0--|

 B|------------------|-----------------|-----------------|----------------|
F#|------------------|-----------------|-----------------|----------------|
 D|------------------|-----------------|-----------------|----------------|
 A|------------------|-----------------|-----------------|----------------|
 E|--5---------------|-----------------|-5---------------|----------------|
 A|----0-6-0-3-6-0-3-|-7-0-3-6-0-3-5-0-|---0-6-0-3-6-0-3-|-7-0-3-0--0--0--|

 B|------------------|-----------------|-----------------|----------|
F#|------------------|-----------------|-----------------|----------|
 D|------------------|-----------------|-----------------|----------|
 A|------------------|-----------------|-----------------|----------|
 E|--5---------------|-----------------|-5---------------|----------|
 A|----0-6-0-3-6-0-3-|-7-0-3-6-0-3-5-0-|---0-6-0-3-6-0-3-|-7-0-3-0--|

  Chorus:
 B|----------|---------|---------|---------------|
F#|----------|---------|---------|---------------|
 D|----------|---------|---------|---------------|
 A|--0-0-0-0-|-3-3-3-3-|-8-8-8-8-|-7-7-10--6--6--|
 E|--0-0-0-0-|-3-3-3-3-|-8-8-8-8-|-7-7-10--6--6--|
 A|--0-0-0-0-|-3-3-3-3-|-8-8-8-8-|-7-7-10--6--6--|

 B|----------|---------|---------|----------------|
F#|----------|---------|---------|----------------|
 D|----------|---------|---------|----------------|
 A|--0-0-0-0-|-3-3-3-3-|-6-6-6-6-|-7---10-10-6-6--|
 E|--0-0-0-0-|-3-3-3-3-|-6-6-6-6-|-7---10-10-6-6--|
 A|--0-0-0-0-|-3-3-3-3-|-6-6-6-6-|-7---10-10-6-6--|

  Post-chorus:
 B|----------------------------------|--------------------------------|
F#|----------------------------------|--------------------------------|
 D|----------------------------------|--------------------------------|
 A|----------------------------------|--------------------------------|
 E|--5-------------------------------|-5------------------------------|
 A|----0-6-0-3-6-0-3-7-0-3-6-0-3-5-0-|---0-6-0-3-6-0-3-7-0-3-0--0--0--|

   Verse:
 B|-----------------|-----------------|----------------|----------------|
F#|-----------------|-----------------|----------------|----------------|
 D|-----------------|-----------------|----------------|----------------|
 A|-----------------|-----------------|----------------|----------------|
 E|--5--------------|-----------------|-5--------------|----------------|
 A|----0-6-0-3-6----|---0-3-6-0-3-5-0-|---0-6-0-3-6----|---0-3-0--0--0--|

 B|-----------------|-----------------|----------------|---------------|
F#|-----------------|-----------------|----------------|---------------|
 D|-----------------|-----------------|----------------|---------------|
 A|-----------------|-----------------|----------------|---------------|
 E|--5--------------|-----------------|-5--------------|---------------|
 A|----0-6-0-3-6----|---0-3-6-0-3-5-0-|---0-6-0-3-6----|---0-3-0-----0-|

 B|-----------------|-----------------|----------------|----------------|
F#|-----------------|-----------------|----------------|----------------|
 D|-----------------|-----------------|----------------|----------------|
 A|-----------------|-----------------|----------------|----------------|
 E|--5--------------|-----------------|-5--------------|----------------|
 A|----0-6-0-3-6----|---0-3-6-0-3-5-0-|---0-6-0-3-6----|---0-3-0--0--0--|

 B|-----------------|-----------------|----------------|---------------|
F#|-----------------|-----------------|----------------|---------------|
 D|-----------------|-----------------|----------------|---------------|
 A|-----------------|-----------------|----------------|---------------|
 E|--5--------------|-----------------|-5--------------|---------------|
 A|----0-6-0-3-6----|---0-3-6-0-3-5-0-|---0-6-0-3-6----|---0-3-0-0-----|

GUITAR 2: (low volume)
 B|--------------------|---------------|-------------------|--------------|
F#|--------------------|---------------|-------------------|--------------|
 D|--------------------|---------------|-------------------|--------------|
 A|--------------7-7-7-|---------------|-------------7-7-7-|--------------|
 E|--5-----------5-5-5-|---------------|-5-----------5-5-5-|--------------|
 A|----0-6-0-3-6-------|-0-3-6-0-3-5-0-|---0-6-0-3-6-------|-0-3-0--0--0--|
                 * * *                               * * *

 B|--------------------|---------------|-------------------|-------------|
F#|--------------------|---------------|-------------------|-------------|
 D|--------------------|---------------|-------------------|-------------|
 A|--------------7-7-7-|---------------|-------------7-7-7-|-------------|
 E|--5-----------5-5-5-|---------------|-5-----------5-5-5-|-------------|
 A|----0-6-0-3-6-------|-0-3-6-0-3-5-0-|---0-6-0-3-6-------|-0-3-0-----0-|
                 * * *                               * * *

 B|------------------|-----------------|-----------------|----------------|
F#|------------------|-----------------|-----------------|----------------|
 D|------------------|-----------------|-----------------|----------------|
 A|------------------|-----------------|-----------------|----------------|
 E|--5---------------|-----------------|-5---------------|----------------|
 A|----0-6-0-3-6-0-3-|-7-0-3-6-0-3-5-0-|---0-6-0-3-6-0-3-|-7-0-3-0--0--0--|

 B|----------------|-----------------|---------------|----------|
F#|----------------|-----------------|---------------|----------|
 D|----------------|-----------------|---------------|----------|
 A|----------------|-----------------|---------------|----------|
 E|--5-------------|-----------------|-5-------------|----------|
 A|----0-6-0-3-6---|---0-3-6-0-3-5-0-|---0-6-0-3-6---|-0-3-5-0--|

  Chorus:
 B|----------|---------|---------|---------------|
F#|----------|---------|---------|---------------|
 D|----------|---------|---------|---------------|
 A|--0-0-0-0-|-3-3-3-3-|-8-8-8-8-|-7-7-10--6--6--|
 E|--0-0-0-0-|-3-3-3-3-|-8-8-8-8-|-7-7-10--6--6--|
 A|--0-0-0-0-|-3-3-3-3-|-8-8-8-8-|-7-7-10--6--6--|

 B|----------|---------|---------|----------------|
F#|----------|---------|---------|----------------|
 D|----------|---------|---------|----------------|
 A|--0-0-0-0-|-3-3-3-3-|-6-6-6-6-|-7---10-10-6-6--|
 E|--0-0-0-0-|-3-3-3-3-|-6-6-6-6-|-7---10-10-6-6--|
 A|--0-0-0-0-|-3-3-3-3-|-6-6-6-6-|-7---10-10-6-6--|

  Bridge:
 B|----------------------|-----------------|---------------------|-------------------|
F#|----------------------|-----------------|---------------------|-------------------|
 D|----------------------|-----------------|---------------------|-------------------|
 A|----------------------|-----------------|---------------------|-------------------|
 E|--------5--------5----|-----5---6---3h5-|-------5--------5----|-----5-------------|
 A|--0-6h7---0--6h7---0--|-6h7---0---0-----|-0-6h7---0--6h7---0--|-6h7---0-10-0-8p7--|

 B|----------------------|-----------------|---------------------|-------------|
F#|----------------------|-----------------|---------------------|-------------|
 D|----------------------|-----------------|---------------------|-------------|
 A|----------------------|-----------------|---------------------|-------------|
 E|--------5--------5----|-----5---6---3h5-|-------5--------5----|-----5-------|
 A|--0-6h7---0--6h7---0--|-6h7---0---0-----|-0-6h7---0--6h7---0--|-6h7---0-----|

 B|----------------------|-----------------|---------------------|-------------------|
F#|----------------------|-----------------|---------------------|-------------------|
 D|----------------------|-----------------|---------------------|-------------------|
 A|----------------------|-----------------|---------------------|-------------------|
 E|--------5--------5----|-----5---6---3h5-|-------5--------5----|-----5-------------|
 A|--0-6h7---0--6h7---0--|-6h7---0---0-----|-0-6h7---0--6h7---0--|-6h7---0-10-0-8p7--|

 B|----------------------|-----------------|---------------------|-------------------|
F#|----------------------|-----------------|---------------------|-------------------|
 D|----------------------|-----------------|---------------------|-------------------|
 A|----------------------|-----------------|---------------------|-------------------|
 E|--------5--------5----|-----5---6---3h5-|-------5--------5----|-----5-------------|
 A|--0-6h7---0--6h7---0--|-6h7---0---0-----|-0-6h7---0--6h7---0--|-6h7---0-10-0-8p7--|


  Chorus:
 B|----------|---------|---------|---------------|
F#|----------|---------|---------|---------------|
 D|----------|---------|---------|---------------|
 A|--0-0-0-0-|-3-3-3-3-|-8-8-8-8-|-7-7-10--6--6--|
 E|--0-0-0-0-|-3-3-3-3-|-8-8-8-8-|-7-7-10--6--6--|
 A|--0-0-0-0-|-3-3-3-3-|-8-8-8-8-|-7-7-10--6--6--|

 B|----------|---------|---------|----------------|
F#|----------|---------|---------|----------------|
 D|----------|---------|---------|----------------|
 A|--0-0-0-0-|-3-3-3-3-|-6-6-6-6-|-7---10-10-6-6--|
 E|--0-0-0-0-|-3-3-3-3-|-6-6-6-6-|-7---10-10-6-6--|
 A|--0-0-0-0-|-3-3-3-3-|-6-6-6-6-|-7---10-10-6-6--|

 B|----------|---------|---------|---------------|
F#|----------|---------|---------|---------------|
 D|----------|---------|---------|---------------|
 A|--0-0-0-0-|-3-3-3-3-|-8-8-8-8-|-7-7-10--6--6--|
 E|--0-0-0-0-|-3-3-3-3-|-8-8-8-8-|-7-7-10--6--6--|
 A|--0-0-0-0-|-3-3-3-3-|-8-8-8-8-|-7-7-10--6--6--|

 B|----------|---------|---------|----------------|
F#|----------|---------|---------|----------------|
 D|----------|---------|---------|----------------|
 A|--0-0-0-0-|-3-3-3-3-|-6-6-6-6-|-7---10-10-6-6--|
 E|--0-0-0-0-|-3-3-3-3-|-6-6-6-6-|-7---10-10-6-6--|
 A|--0-0-0-0-|-3-3-3-3-|-6-6-6-6-|-7---10-10-6-6--|

  Outro:
 B|----------------------|-----------------|---------------------|-------------------|
F#|----------------------|-----------------|---------------------|-------------------|
 D|----------------------|-----------------|---------------------|-------------------|
 A|----------------------|-----------------|---------------------|-------------------|
 E|--------5--------5----|-----5---6---3h5-|-------5--------5----|-----5-------------|
 A|--0-6h7---0--6h7---0--|-6h7---0---0-----|-0-6h7---0--6h7---0--|-6h7---0-10-0-8p7--|

 B|----------------------|-----------------|---------------------|-------------------|
F#|----------------------|-----------------|---------------------|-------------------|
 D|----------------------|-----------------|---------------------|-------------------|
 A|----------------------|-----------------|---------------------|-------------------|
 E|--------5--------5----|-----5---6---3h5-|-------5--------5----|-----5-------------|
 A|--0-6h7---0--6h7---0--|-6h7---0---0-----|-0-6h7---0--6h7---0--|-6h7---0-10-0-8p7--|
Добавлено: 31.07.2012
Другие материалы по этой песне:
  • Аккорды и текст

Страница создана 31.07.2012
http://primanota.ru/red/the-outside-chords.htm
Привет, Гость.
Предлагаем пройти революционный курс по гитаре.
Подарок от PrimaNota.Ru, забирай!