PrimaNota.ru - самый крупный в мире бесплатный архив песенных текстов, аккордов, табулатур и нот


Red - Take Me Over - таба, видео

Регистрация Запомнить меня
Войти через:  Facebook Google Twitter Vk Yandex Mail.ru

Red - Take Me Over - таба, видео

Печатать
Просмотров: 148
-------------------------------------------------------------------------------
                            Take Me Over - Red
-------------------------------------------------------------------------------
Tabbed by: StevenBeaven90
E-mail: stevenkotelnikov@Gmail.com
Feel free to email me if you have any questions about this tab or any other of my tabs.

Tuning: Drop C

[Intro](0:00-0:27)
Rhythm Guitar
D|---------------------------------------------------------------------------|
A|---------------------------------------------------------------------------|
F|---------------------------------------------------------------------------|
C|-5---4---2-0-2--4-----2-0-2--4----0----------------------------------------|
G|------------------2------------2----4-2------------------------------------|
C|---------------------------------------------------------------------------|

D|---------------------------------------------------------------------------|
A|---------------------------------------------------------------------------|
F|---------------------------------------------------------------------------|
C|-5-5-5-5-5-5-7-7-9-9-9-9-9-9-12-12-7-7-7-7-7-7-9-9-5-5-5-5-5-5-5-5---------|
G|-5-5-5-5-5-5-7-7-9-9-9-9-9-9-12-12-7-7-7-7-7-7-9-9-5-5-5-5-5-5-5-5---------|
C|-5-5-5-5-5-5-7-7-9-9-9-9-9-9-12-12-7-7-7-7-7-7-9-9-5-5-5-5-5-5-5-5---------|

D|---------------------------------------------------------------------------|
A|---------------------------------------------------------------------------|
F|---------------------------------------------------------------------------|
C|-5-5-5-5-5-5-7-7-9-9-9-9-9-9-12-12-7-7-7-7-7-7-9-9-5-5-5-5-5-5-5-5---------|
G|-5-5-5-5-5-5-7-7-9-9-9-9-9-9-12-12-7-7-7-7-7-7-9-9-5-5-5-5-5-5-5-5---------|
C|-5-5-5-5-5-5-7-7-9-9-9-9-9-9-12-12-7-7-7-7-7-7-9-9-5-5-5-5-5-5-5-5---------|

[Verse I](0:27-0:45)(No Guitar)

[Pre-chorus I](0:45-1:04)(No Guitar)

[Chorus I](1:04-1:31)
Rhythm Guitar (x3)
D|---------------------------------------------------------------------------|
A|---------------------------------------------------------------------------|
F|---------------------------------------------------------------------------|
C|-5-5-5-5-5-5-7-7-9-9-9-9-9-9-12-12-7-7-7-7-7-7-9-9-5-5-5-5-5-5-5-5---------|
G|-5-5-5-5-5-5-7-7-9-9-9-9-9-9-12-12-7-7-7-7-7-7-9-9-5-5-5-5-5-5-5-5---------|
C|-5-5-5-5-5-5-7-7-9-9-9-9-9-9-12-12-7-7-7-7-7-7-9-9-5-5-5-5-5-5-5-5---------|

[Verse II](1:31-1:49)(No Guitar)

[Pre-chorus II](1:49-2:07)(No Guitar)

[Chorus II](2:07-2:25)(Same as Chorus I but only play through twice)

[Bridge](2:25-3:06)(Starts @ 2:43)
Rhythm Guitar
D|---------------------------------------------------------------------------|
A|---------------------------------------------------------------------------|
F|-------------------------------------------------2-2-2-2-2-2-2-2-----------|
C|-2-2-2-2-2-2-4-4-5-5-5-5-5-5-5-5-0-0-0-0-0-0-0-0-2-2-2-2-2-2-2-2-----------|
G|-2-2-2-2-2-2-4-4-5-5-5-5-5-5-5-5-0-0-0-0-0-0-0-0-0-0-0-0-0-0-0-0-----------|
C|-2-2-2-2-2-2-4-4-5-5-5-5-5-5-5-5-0-0-0-0-0-0-0-0---------------------------|

D|---------------------------------------------------------------------------|
A|---------------------------------------------------------------------------|
F|-------------------------------------------------2-2-2-2-2-2-2-2-----------|
C|-2-2-2-2-2-2-4-4-5-5-5-5-5-5-5-5-0-0-0-0-0-0-0-0-2-2-2-2-2-2-2-2-----------|
G|-2-2-2-2-2-2-4-4-5-5-5-5-5-5-5-5-0-0-0-0-0-0-0-0-0-0-0-0-0-0-0-0-----------|
C|-2-2-2-2-2-2-4-4-5-5-5-5-5-5-5-5-0-0-0-0-0-0-0-0---------------------------|

D|---------------------------------------------------------------------------|
A|---------------------------------------------------------------------------|
F|-2-2-2-2-2-2-2-2-----------------------------------------------------------|
C|-2-2-2-2-2-2-2-2-----------------------------------------------------------|
G|-0-0-0-0-0-0-0-0-----------------------------------------------------------|
C|---------------------------------------------------------------------------|

[Chorus III](3:06-3:31)
Rhythm Guitar
D|---------------------------------------------------------------------------|
A|---------------------------------------------------------------------------|
F|---------------------------------------------------------------------------|
C|-----------------9-9-9-9-9-9-12-12-7-7-7-7-7-7-9-9-5-5-5-5-5-5-5-5---------|
G|-----------------9-9-9-9-9-9-12-12-7-7-7-7-7-7-9-9-5-5-5-5-5-5-5-5---------|
C|-----------------9-9-9-9-9-9-12-12-7-7-7-7-7-7-9-9-5-5-5-5-5-5-5-5---------|

D|---------------------------------------------------------------------------|
A|---------------------------------------------------------------------------|
F|---------------------------------------------------------------------------|
C|-5-5-5-5-5-5-7-7-9-9-9-9-9-9-12-12-7-7-7-7-7-7-9-9-5-5-5-5-5-5-5-5---------|
G|-5-5-5-5-5-5-7-7-9-9-9-9-9-9-12-12-7-7-7-7-7-7-9-9-5-5-5-5-5-5-5-5---------|
C|-5-5-5-5-5-5-7-7-9-9-9-9-9-9-12-12-7-7-7-7-7-7-9-9-5-5-5-5-5-5-5-5---------|

D|---------------------------------------------------------------------------|
A|---------------------------------------------------------------------------|
F|---------------------------------------------------------------------------|
C|-5-5-5-5-5-5-7-7-9-9-9-9-9-9-12-12-7-7-7-7-7-7-9-9-5-5-5-5-5-5-5-5---------|
G|-5-5-5-5-5-5-7-7-9-9-9-9-9-9-12-12-7-7-7-7-7-7-9-9-5-5-5-5-5-5-5-5---------|
C|-5-5-5-5-5-5-7-7-9-9-9-9-9-9-12-12-7-7-7-7-7-7-9-9-5-5-5-5-5-5-5-5---------|

[Outroduction](3:31-3:51)(No Guitar)

************************************

| /   slide up
| \   slide down
| x   Mute note

************************************
Добавлено: 19.09.2015
Другие материалы по этой песне:
  • Аккорды и текст

Страница создана 19.09.2015
http://primanota.ru/red/take-me-over-chords.htm
Привет, Гость.
Предлагаем пройти революционный курс по гитаре.
Подарок от PrimaNota.Ru, забирай!