PrimaNota.ru - самый крупный в мире бесплатный архив песенных текстов, аккордов, табулатур и нот


Red - Intro Canto 3 - таба, видео

Регистрация Запомнить меня
Войти через:  Facebook Google Twitter Vk Yandex Mail.ru

Red - Intro Canto 3 - таба, видео

Печатать
Просмотров: 81
-------------------------------------------------------------------------------
                          Intro (Canto III) - Red
-------------------------------------------------------------------------------
Tabbed by: StevenBeaven90
E-mail: stevenkotelnikov@Gmail.com
Feel free to email me if you have any questions about this tab or any other of my tabs.

Tuning: Drop A# (The reason why I chose this song to be tuned to Drop A# is
because the entire Innocence and Instinct album is tuned to Drop A# and I wanted 
to keep alignment with the other songs).

Piano (Starts @ 0:17)
(0:17-0:26)
C|---------------------------------------------------------------------------|
G|---------------------------------------------------------------------------|
D#|--------------------------------------------------------------------------|
a#|-------13------11----13----14---------------------------------------------|
F|--11-----------------------------------------------------------------------|
A#|--------------------------------------------------------------------------|

(0:26-0:33)(No Piano)

(0:33-0:50)
C|----------------------------------------------------------------14---------|
G|---------------------------------------------------------------------------|
D#|-13--------13----11--------14----13--------14----------11-----------------|
a#|--------------------------------------------------------------------------|
F|---------------------------------------------------------------------------|
A#|--------------------------------------------------------------------------|

(0:50-0:59)(No Piano)

(0:59-1:14)
C|--12----11----14----12------11---------------------------------------------|
G|------------------------------------14------13-----------------------------|
D#|-------------------------------------------------14----13----11-----------|
a#|--------------------------------------------------------------------------|
F|---------------------------------------------------------------------------|
A#|--------------------------------------------------------------------------|

(1:14-1:18)
C|---------------------------------------------------------------------------|
G|---------------------------------------------------------------------------|
D#|--------------------------------------------------------------------------|
a#|-13--------11-------------------------------------------------------------|
F|---------------------------------------------------------------------------|
A#|--------------------------------------------------------------------------|

************************************

| /   slide up
| \   slide down
| x   Mute note

************************************
Добавлено: 20.05.2015
Другие материалы по этой песне:
  • Аккорды и текст

Страница создана 20.05.2015
http://primanota.ru/red/intro-canto-3-chords.htm
Привет, Гость.
Предлагаем пройти революционный курс по гитаре.
Подарок от PrimaNota.Ru, забирай!