PrimaNota.ru - самый крупный в мире бесплатный архив песенных текстов, аккордов, табулатур и нот


Red - Fight To Forget - таба, видео

Регистрация Запомнить меня
Войти через:  Facebook Google Twitter Vk Yandex Mail.ru

Red - Fight To Forget - таба, видео

Печатать
Просмотров: 95
-------------------------------------------------------------------------------
                          FIGHT TO FORGET - Red
-------------------------------------------------------------------------------
Tabbed by: GaleForceRocks
E-mail: galeforce100@icloud.com

Tuning: Drop Bb

Check out my Guitar Pro tab of this song for more detailed rhythms.

Intro (x2)
C |-----------------------------------------------------------------------------|
G |-----------------------------------------------------------------------------|
Eb|-----------------------------------------------------------------------------|
Bb|-0-0-6-3-0-5-4-1-0-0-6-3-0-5-4---0-0-6-3-0-5-4-1-----------------------------|
F |-0-0-6-3-0-5-4-1-0-0-6-3-0-5-4---0-0-6-3-0-5-4-1-------------------------3---|
Bb|-0-0-6-3-0-5-4-1-0-0-6-3-0-5-4---0-0-6-3-0-5-4-1-0---0-0-3-0-0-0-6-0-0-0-----|
                                                                            +
Verse 1 Part 1 (x4)
C |------------|
G |------------|
Eb|------------|
Bb|------------|
F |------------|
Bb|-0-0-6--0-3-|

Verse 1 Part 2
C |-----------------------------------------------------------------|
G |-----------------------------------------------------------------|
Eb|-----------------------------------------------------------------|
Bb|-------------------------6-------------------------------6-------|
F |---------------------3-------5-----------------------3-------5---|
Bb|-0-0-0-0-6---0-0-0-0-------------0-0-0-0-6---0-0-0-0-------------|

C |-----------------------------------------------------------------|
G |-----------------------------------------------------------------|
Eb|-----------------------------------------------------------------|
Bb|-------------------------6---------------------------------------|
F |---------------------3-------5-----------------------3---5---6---|
Bb|-0-0-0-0-6---0-0-0-0-------------0-0-0-0-6---0-0-0-0-------------|

Chorus 1
C |--------------------------------------------------------|
G |--------------------------------------------------------|
Eb|--------------------------------------------------------|
Bb|-4---5---8-------------------4---5---8------------------|
F |-4---5---8-------------------4---5---8------------------|
Bb|-4---5---8---6-0-0-6-0-0-4-8-4---5---8---6-0-0-4-5-6-7-6|

Riff (Same as Intro)

Verse 2 (Same as Verse 1)

Chorus 2 (Same as Chorus 1)

Bridge Part 1 (x2)
C |-----------------------------|
G |-----------------------------|
Eb|-----------------------------|
Bb|-4---5---8-------------------|
F |-4---5---8-------3-----5-----|
Bb|-4---5---8---0-1---1-0---8-7-|

Bridge Part 2
C |----------------------------------------------------------|
G |----------------------------------------------------------|
Eb|----------------------------------------------------------|
Bb|----------------------------------------------------------|
F |----------------------------------------------------------|
Bb|-2-(x8)-1-(x8)-0-(x8)-7-(x8)-2-(x8)-1-(x8)-0-(x8)-7-(x16)-|

Chorus 3 (Same as Chorus 1 without first two chords first time)

Outro (Same as Intro)

Thanks for reading the tab, please rate and comment corrections!

************************************

| /   slide up
| \   slide down
| h   hammer-on
| p   pull-off
| ~   vibrato
| +   harmonic
| x   Mute note
| b   Bend
| pb  Pre-bend
| br  Bend release
| pbr Pre-bend release
| brb Bend release bend

************************************
Добавлено: 19.09.2015
Другие материалы по этой песне:

Страница создана 19.09.2015
http://primanota.ru/red/fight-to-forget-chords.htm
Привет, Гость.
Предлагаем пройти революционный курс по гитаре.
Подарок от PrimaNota.Ru, забирай!