PrimaNota.ru - самый крупный в мире бесплатный архив песенных текстов, аккордов, табулатур и нот


Red - Feed The Machine - текст песни, таба, бас-таба, видео

Регистрация Запомнить меня
Войти через:  Facebook Google Twitter Vk Yandex Mail.ru

Red - Feed The Machine - текст песни, таба, бас-таба, видео

Печатать
Просмотров: 184
Уроки эстрадного вокала в Санкт-Петербурге
Feed the Machine by Red                             


Artist: Red
Song: Feed the Machine
Album: Until We Have Faces (2011)
Tabbed by: AudioDemon

Tuning: Drop Ab (Ab Eb Ab Db F Bb)
(It was submitted as Drop A because there was no option for Ab or G#)


**UPDATE**
Version 2 I believe is the correctly tabbed version, but for those using standard 
strings and not heavy gauge strings, the Drop A flat version (mine) may be useful.



Legend
*-palm mute
x-mute
=-hold down 



Intro
Bb|--------------------------|
 F|--------------------------|
Db|--------------------------|
Ab|--------------------------|
Eb|----------5---------------|
Ab|--0-0-3-0---0-0-8-0-7-0---|x4
     * * * * * * * * * * *

Verse 1
Bb|---------------------------------------------------------|
 F|---------------------------------------------------------|
Db|---------------------------------------------------------|
Ab|---------------------------------------------------------|
Eb|----------5--------------------------------5-------------|
Ab|--0-0-3-0---0-0-8-0-7-0-6-0-5-0----0-0-3-0---0-0-8-0-7-0-|

Bb|-----------------------------------------------------------------|
 F|-----------------------------------------------------------------|
Db|-----------------------------------------------------------------|
Ab|-----------------------------------------------------------------|
Eb|----------5--------------------------------5---------------------|
Ab|--0-0-3-0---0-0-8-0-7-0-6-0-5-0----0-0-3-0---0-0-8-0-7-0-6-0-5-0-|


Verse 2 (Background)
Bb|-------|-----------------------------------------------------------------------------------|
 F|-------|-----------------------------------------------------------------------------------|
Db|-------|-----------------------------------------------------------------------------------|
Ab|-0===--|-----------------------------------------------------------------------------------|
Eb|-0===--|--------------------------5--------------5------6=----------------------------5----|
Ab|-0===--|--0-0--0-0-3-0-0--0-0-3-0---0-0--0-0-3-0---0-0-3------0-0--0-0-3-0-0--0-0-3-0---0-0|


Verse 3
Bb|-------------------||----------------------------------------------------|
 F|-------------------||----------------------------------------------------|
Db|-------------------||----------------------------------------------------|
Ab|-8==3==5====-3-5-0-||----------------------------------------------------|
Eb|-8==3==5====-3-5-0-||--------------------------5--------------5------6=--|
Ab|-8==3==5====-3-5-0-||--0-0--0-0-3-0-0--0-0-3-0---0-0--0-0-3-0---0-0-3----|x2

  |---------------------------------------------|
  |---------------------------------------------|
  |---------------------------------------------|
  |---------------------------8==3==5====-------|
  |---------------------------8==3==5====-------|
  |--0-0--0-0-3-0-0-3---------8==3==5====-3-5-0-|


PreChorus
Bb|-----------------------------|  |---------------------------------|
 F|-----------------------------|  |---------------------------------|
Db|-----------------------------|  |---------------------------------|
Ab|-----------------------------|  |---------------------------------|
Eb|----------5------------------|  |----------5----------------------|
Ab|--0-0-3-0---0-0-8-0-6-0-5-0--|x3|--0-0-3-0---0-0-8-0-7-0-6-0-5-0--|


Chorus 
Bb|-------------------------|-------------------|
 F|-------------------------|-------------------|
Db|-------------------------|-------------------|
Ab|-8------5------0===------|-8-----10-----5===-|
Eb|-8(x8)--5(x8)--0===(x8)--|-8(x8)-10(x8)-5===-|
Ab|-8------5------0===------|-8-----10-----5===-|
											
  |-------------------------------||--------------------------|
  |---------------------------(Chorus 1.5)--------------------|
  |-------------------------------||--------------------------|
  |--------------------3-5-0------||--------------------3-5-0-|
  |--------------------3-5-0------||------------5-------3-5-0-| 
  |--0-0--0-0-3-0-0--0-3-5-0-(x2)-||--0-0--0-0-3-0-0--0-3-5-0-| 


Verse 1
Verse 2
Verse 3
PreChorus
Chorus
Chorus 1.5(x2)

Riff 
Bb|------------|
 F|--16-16-16--|
Db|---x--x--x--|
Ab|--14-14-14--|
Eb|------------|
Ab|------------|

Verse 4
Bb|---------------------------------------------------------------|
 F|---------------------------------------------------------------|
Db|---------------------------------------------------------------|
Ab|---------------------------------------------------------------|
Eb|----------5--------------------------------5---------8-7-----7-|
Ab|--0-0-3-0---0-0-8-0-7-0-6-0-5-0----0-0-3-0---0-0-8-0-----8-7---|x2 


Bridge
Bb|---------------------------------------||---------------------------|
 F|---------------------------------------||-----(Outro)---------------|
Db|---------------------------------------||---------------------------|
Ab|-8------5------0===-------8-----10-----||-5-------4-------5---------|
Eb|-8(x8)--5(x8)--0===(x8)---8(x8)-10(x8)-||-5-(x16)-5-(x16)-5-(x16)---|
Ab|-8------5------0===-------8-----10-----||-5-------4-------5---------|


Riff 2
Bb|----------------|
 F|----------------|
Db|----------------|
Ab|----------------|
Eb|-------7-7------|
Ab|-0-0-8-----3-5--|x2

Outro
Riff 2 
Outro
Riff 2
Outro (Fades Out)

END

This song has a fast tempo with a lot of note changes, so please 
email me about my mistakes and I will be happy to fix them!

EMAIL: info@rstudios.net
Добавлено: 12.03.2012
Другие материалы по этой песне:

Страница создана 28.02.2012
http://primanota.ru/red/feed-the-machine-chords.htm
Привет, Гость.
Предлагаем пройти революционный курс по гитаре.
Подарок от PrimaNota.Ru, забирай!