PrimaNota.ru - самый крупный в мире бесплатный архив песенных текстов, аккордов, табулатур и нот


Red - Ascent - таба, видео

Регистрация Запомнить меня
Войти через:  Facebook Google Twitter Vk Yandex Mail.ru

Red - Ascent - таба, видео

Печатать
Просмотров: 110
-------------------------------------------------------------------------------
                    Ascent - Red - Of Beauty And Rage(2015)
-------------------------------------------------------------------------------

Tabbed by: Batman
Tuning: Standard

e|-----------------------------------------------------------------------------------------------------|
B|-----------------------------------------------------------------------------------------------------|
G|-------------------------------------------------9---------7-----------9-----10--9--10--9------------|
D|-----------------------7--10---7---7----------7---------5-----------7-----7----------------10--9--10-|
A|-8---7---8---7------8------------------10--8---------7--------5--8-----------------------------------|
E|-----------------8-----------------------------------------------------------------------------------|

e|-----------------------------------12------13--12--13--12--------------17----------17----------15-----|
B|----10------10--8-----8--------10------10------------------13--15--18------18--18------17--17------17-|
G|-7-----------------5-----4--5-------------------------------------------------------------------------|
D|--------10--------------------------------------------------------------------------------------------|
A|------------------------------------------------------------------------------------------------------|
E|------------------------------------------------------------------------------------------------------|

e|----------------------17-----------17--19--20-----------------------------------------------|
B|-18--17--15--18---18------18---18---------------13-----10-----------------------------------|
G|----------------------------------------------------9-------9--10--9-----------10--9--10--9-|
D|----------------------------------------------------------------------10--12----------------|
A|--------------------------------------------------------------------------------------------|
E|--------------------------------------------------------------------------------------------|

e|--------------------------|
B|--------------------------|
G|--------------------------|
D|-12--10--8--7--------5--7-|
A|---------------8--5-------|
E|--------------------------|

Rock on
    -Batman
Добавлено: 19.09.2015
Другие материалы по этой песне:
  • Аккорды и текст

Страница создана 19.09.2015
http://primanota.ru/red/ascent-chords.htm
Привет, Гость.
Предлагаем пройти революционный курс по гитаре.
Подарок от PrimaNota.Ru, забирай!